Guitaretab - guitar tabs
Song name
# A B C D E F G H I J K L M N O P Q R S T U V W X Y Z

Ramones - Now I Wanna Be A Good Boy tab

-------------------------------------------------------------------------------
			     Now I Wanna Be A Good Boy - The Ramones
                                 from their "Leave Home" album
-------------------------------------------------------------------------------
Tabbed by:UsedGuitar92
Email:usedguitar92@gmail.com

Tuning:E A D G B E

Intro
e|------------------------------------|--------------------------------------|
B|------------------------------------|--------------------------------------|
G|---------5--5---7--7--7--7-------5--|--------------------------------------|
D|-7--7----5--5---7--7--7--7---5---5--|---X2---------------------------------|
A|-7--7----3--3---5--5--5--5---5---3--|--------------------------------------|
E|-5--5------------------------3------|--------------------------------------|


Verse
e|-----------------------------------------------|---------------------------|
B|-----------------------------------------------|---------------------------|
G|-----------------------------------------------|---------------------------|
D|-7--7--7----3--3--3----5--5--5--5--5--5--5--5--|---X4----------------------|
A|-7--7--7----3--3--3----5--5--5--5--5--5--5--5--|---------------------------|
E|-5--5--5----1--1--1----3--3--3--3--3--3--3--3--|---------------------------|


Interlude 1
e|--------------------------------------|------------------------------------|
B|--------------------------------------|------------------------------------|
G|--------5--5--5--5--------7--7--7--7--|------------------------------------|
D|-7--7---5--5--5--5--5--5--7--7--7--7--|----X2------------------------------|
A|-7--7---3--3--3--3--5--5--5--5--5--5--|------------------------------------|
E|-5--5---------------3--3--------------|------------------------------------|


Interlude 2
e|--------------------------------------------|------------------------------|
B|--------------------------------------------|------------------------------|
G|--------9--9--9--9----------11--11--11--11--|------------------------------|
D|-7--7---9--9--9--9----9--9--11--11--11--11--|---X2-------------------------|
A|-7--7---7--7--7--7----9--9---9---9---9---9--|------------------------------|
E|-5--5-----------------7--7------------------|------------------------------|

[ Tab from: http://www.guitaretab.com/r/ramones/187084.html ]
Interlude 3
e|-------------------------|-------------------------------------------------|
B|-------------------------|-------------------------------------------------|
G|-7-----7-----7-----7-----|-------------------------------------------------|
D|-7--7--7--7--7--7--7--7--|--X2---------------------------------------------|
A|-5--7--5--7--5--7--5--7--|-------------------------------------------------|
E|----5-----5-----5-----5--|-------------------------------------------------|


Interlude 4
e|------------------------|--------------------------------------------------|
B|------------------------|--------------------------------------------------|
G|------------------------|--------------------------------------------------|
D|-7--7--7--7--7--7--7--7-|--------------------------------------------------|
A|-7--7--7--7--7--7--7--7-|--------------------------------------------------|
E|-5--5--5--5--5--5--5--5-|--------------------------------------------------|
P.M|----------------------|


e|---------------------------------------------------------------------------|
B|---------------------------------------------------------------------------|
G|-7--7----------------------------------------------------------------------|
D|-7--7----------------------------------------------------------------------|
A|-5--5----------------------------------------------------------------------|
E|---------------------------------------------------------------------------|


Ending
e|-------------------------|-------------------------------------------------|
B|-------------------------|-------------------------------------------------|
G|-7-----7-----7-----7-----|-------------------------------------------------|
D|-7--7--7--7--7--7--7--7--|-------------------------------------------------|
A|-5--7--5--7--5--7--5--7--|-------------------------------------------------|
E|----5-----5-----5-----5--|-------------------------------------------------|



Intro

Verse

Interlude 1

Verse

Interlude 2

Interlude 3 X2

Interlude 4 X2

Ending

play the song this way 2 times and your done 

| /  slide up
| \  slide down
| h  hammer-on
| p  pull-off
| ~  vibrato
| +  harmonic
| x  Mute note
===============================================================================
Related for Now I Wanna Be A Good Boy tab