Song name
# A B C D E F G H I J K L M N O P Q R S T U V W X Y Z

Ramones - I Dont Want To Grow Up tab

VERSE (play this over and over

e-------------------------------------------------|
b-------------------------------------------------|
g-------------------------------------------------|
d----7-7-7-7-7-7-7-7------------------------------|
a----5-5-5-5-5-5-5-5--7-7-7-7-7-7-7-7-------------|
e---------------------5-5-5-5-5-5-5-5-------------|

CHORUS

e-------------------------------------------------|
b-------------------------------------------------|
g-------------------------------------------------|
d-4-4-4-4-----------------------------------------|
a-2-2-2-2--4-4-4-4--5-5-5-5---7-7-7-7-------------|
e----------2-2-2-2--3-3-3-3---5-5-5-5-------------|

BRIDGE? (where he keeps saying (i dont wanna...)
e-------------------------------------------------|
b-------------------------------------------------|
g-------------------------------------------------|
d--4-4-4-4----------------------------------------|
a--2-2-2-2--4-4-4-4-------------------------------|
e-----------2-2-2-2-------------------------------|

SOLO

e-------------------------------------------------|
b-------------------------------------------------|
g-------------------------------------------------|
d------------4/7-7-7-7-7--2-2-2-2h-4p-2-----------|
a--5-5-5-5-5----------------------------5-5-5-5-5-|
e-------------------------------------------------|

(play this half of the solo twice)
e-------------------------------------------------|
b-------------------------------------------------|
g-------------------------------------------------|
d----1--4-----------------------------------------|
a--2----------------2--5--0--4--7-----------------|
e----------2--0---3-------------------------------|
Tap to rate this tab
 
# A B C D E F G H I J K L M N O P Q R S T U V W X Y Z