Song name
# A B C D E F G H I J K L M N O P Q R S T U V W X Y Z

Ramones - Were A Happy Family tab

The Ramones played in standerd tuning but i'm tabbing in Drop D for everybody who has a 
Rose :)

Riff A
e----------------|
b----------------|
g----------------|
D-----9----------|
A---7-7-99999999-|
D---7---99999999-|x4

Riff B
e---------------------------------------------|
b---------------------------------------------|
g----------------------------------------7-9--|
D--11-11-11-11-11-11-11-11------99999999-5-7--|
A--9--9--9--9--9--9--9--9---7-9-77777777------|
D---------------------------7-9---------------|x2

Riff C (Verse)
e----------------------------------------|
b----------------------------------------|
g-------7777------9999------7777---------|
D--9999-5555-9999-7777-9999-5555-7-7-7-7-|
A--7777------7777------7777------5-5-5-5-|
D----------------------------------------|x2 on second time x4

Reapeat all riffs


Were a happy family
were a happy family
were a happy family
me mom and daddy

were a happy family
were a happy family
were a happy family
me mom and daddy

Sitting here in queens
eating refried beans
were all in the magazines
gulpin down thorazines
we aint got no freinds
our troubles never end
no Christmas cards to send
daddy likes men

were a happy family
were a happy famaly
were a happy family
me mom and daddy

were a happy family
were a happy family
were a happy family
me mom and daddy

daddy's telling lies
baby's eating flies
mommy's on the pill
baby's got the chills
i'm friends with the president
i'm friends with the pope
were all making fortunes
selling daddy's dope

sitting here in queens
eating refried beans
were all in the magazines
gulpin down thorazines
we aint got no friends
our troubles never end
no Christmas cards to send
daddy likes men

were a happy family
were a happy family
were a happy family
me mom and daddy x10
Tap to rate this tab
# A B C D E F G H I J K L M N O P Q R S T U V W X Y Z