Song name
# A B C D E F G H I J K L M N O P Q R S T U V W X Y Z

Ramones - I Just Want To Have Something To Do tab

Intro

|e---------------------------------------------------------|
|b---------------------------------------------------------|
|g---------------------------------------------------------|
|D---7-7-7-7-7--5--3-3-3-3-3--5--7-7-7-7-7--5--3-3-3-3-3--5|
|A---7-7-7-7-7--5--3-3-3-3-3--5--7-7-7-7-7--5--3-3-3-3-3--5|
|E---5-5-5-5-5--3--1-1-1-1-1--3--5-5-5-5-5--3--1-1-1-1-1--3|

Verse

|e------------------------------------------|
|b------------------------------------------|
|g------------------------------------------|
|D---7-7-7-7-7-7-7--3-3-3-3-3-3-3-3--5-5-5--|
|A---7-7-7-7-7-7-7--3-3-3-3-3-3-3-3--5-5-5--|
|E---5-5-5-5-5-5-5--1-1-1-1-1-1-1-1--3-3-3--|

e------------------------------------------|
b------------------------------------------|
g------------------------------------------|
D---7-7-7-7-7-7-7--3-3-3-3-3-3-3-3--5-5-5--|
A---7-7-7-7-7-7-7--3-3-3-3-3-3-3-3--5-5-5--|
E---5-5-5-5-5-5-5--1-1-1-1-1-1-1-1--3-3-3--|

e------------------------------------------|
b------------------------------------------|
g------------------------------------------|
D---7-7-7-7-7-7-7--3-3-3-3-3-3-3-3--5-5-5--|
A---7-7-7-7-7-7-7--3-3-3-3-3-3-3-3--5-5-5--|
E---5-5-5-5-5-5-5--1-1-1-1-1-1-1-1--3-3-3--|

e------------------------------------------|
b------------------------------------------|
g------------------------------------------|
D---7-7-7-7-7-7-7--3-3-3-3-3-3-3-3--5-5-5--|
A---7-7-7-7-7-7-7--3-3-3-3-3-3-3-3--5-5-5--|
E---5-5-5-5-5-5-5--1-1-1-1-1-1-1-1--3-3-3--|

Chorus

|e------------------------------------------------------------------|
|b------------------------------------------------------------------|
|g------------------------------------------------------------------|
|D--7-7-7-7-7-7-7-7-7-7--3-3-3-3-3-3-3-3-3-3--5-5-5-5-5-5-5-5-5-5-5-|
|A--7-7-7-7-7-7-7-7-7-7--3-3-3-3-3-3-3-3-3-3--5-5-5-5-5-5-5-5-5-5-5-|
|E--5-5-5-5-5-5-5-5-5-5--1-1-1-1-1-1-1-1-1-1--3-3-3-3-3-3-3-3-3-3-3-|

e------------------------------------------------------------------|
b------------------------------------------------------------------|
g------------------------------------------------------------------|
D--7-7-7-7-7-7-7-7-7-7--3-3-3-3-3-3-3-3-3-3--5-5-5-5-5-5-5-5-5-5-5-|
A--7-7-7-7-7-7-7-7-7-7--3-3-3-3-3-3-3-3-3-3--5-5-5-5-5-5-5-5-5-5-5-|
E--5-5-5-5-5-5-5-5-5-5--1-1-1-1-1-1-1-1-1-1--3-3-3-3-3-3-3-3-3-3-3-|

e------------------------------------------------------------------|
b------------------------------------------------------------------|
g------------------------------------------------------------------|
D--7-7-7-7-7-7-7-7-7-7--3-3-3-3-3-3-3-3-3-3--5-5-5-5-5-5-5-5-5-5-5-|
A--7-7-7-7-7-7-7-7-7-7--3-3-3-3-3-3-3-3-3-3--5-5-5-5-5-5-5-5-5-5-5-|
E--5-5-5-5-5-5-5-5-5-5--1-1-1-1-1-1-1-1-1-1--3-3-3-3-3-3-3-3-3-3-3-|

e-----------------------------------------------------------------|
b-----------------------------------------------------------------|
g-----------------------------------------------------------------|
D--7-7-7-7-7-7-7-7-7-7--3-3-3-3-3-3-3-3-3-3--5-5-5-5-5-5-5-5-5-5-5|
A--7-7-7-7-7-7-7-7-7-7--3-3-3-3-3-3-3-3-3-3--5-5-5-5-5-5-5-5-5-5-5|
E--5-5-5-5-5-5-5-5-5-5--1-1-1-1-1-1-1-1-1-1--3-3-3-3-3-3-3-3-3-3-3|

Intro

|e---------------------------------------------------------|
|b---------------------------------------------------------|
|g---------------------------------------------------------|
|D---7-7-7-7-7--5--3-3-3-3-3--5--7-7-7-7-7--5--3-3-3-3-3--5|
|A---7-7-7-7-7--5--3-3-3-3-3--5--7-7-7-7-7--5--3-3-3-3-3--5|
|E---5-5-5-5-5--3--1-1-1-1-1--3--5-5-5-5-5--3--1-1-1-1-1--3|

Verse

|e------------------------------------------|
|b------------------------------------------|
|g------------------------------------------|
|D---7-7-7-7-7-7-7--3-3-3-3-3-3-3-3--5-5-5--|
|A---7-7-7-7-7-7-7--3-3-3-3-3-3-3-3--5-5-5--|
|E---5-5-5-5-5-5-5--1-1-1-1-1-1-1-1--3-3-3--|

e------------------------------------------|
b------------------------------------------|
g------------------------------------------|
D---7-7-7-7-7-7-7--3-3-3-3-3-3-3-3--5-5-5--|
A---7-7-7-7-7-7-7--3-3-3-3-3-3-3-3--5-5-5--|
E---5-5-5-5-5-5-5--1-1-1-1-1-1-1-1--3-3-3--|

e------------------------------------------|
b------------------------------------------|
g------------------------------------------|
D---7-7-7-7-7-7-7--3-3-3-3-3-3-3-3--5-5-5--|
A---7-7-7-7-7-7-7--3-3-3-3-3-3-3-3--5-5-5--|
E---5-5-5-5-5-5-5--1-1-1-1-1-1-1-1--3-3-3--|

e------------------------------------------|
b------------------------------------------|
g------------------------------------------|
D---7-7-7-7-7-7-7--3-3-3-3-3-3-3-3--5-5-5--|
A---7-7-7-7-7-7-7--3-3-3-3-3-3-3-3--5-5-5--|
E---5-5-5-5-5-5-5--1-1-1-1-1-1-1-1--3-3-3--|

Chorus

|e------------------------------------------------------------------|
|b------------------------------------------------------------------|
|g------------------------------------------------------------------|
|D--7-7-7-7-7-7-7-7-7-7--3-3-3-3-3-3-3-3-3-3--5-5-5-5-5-5-5-5-5-5-5-|
|A--7-7-7-7-7-7-7-7-7-7--3-3-3-3-3-3-3-3-3-3--5-5-5-5-5-5-5-5-5-5-5-|
|E--5-5-5-5-5-5-5-5-5-5--1-1-1-1-1-1-1-1-1-1--3-3-3-3-3-3-3-3-3-3-3-|

e------------------------------------------------------------------|
b------------------------------------------------------------------|
g------------------------------------------------------------------|
D--7-7-7-7-7-7-7-7-7-7--3-3-3-3-3-3-3-3-3-3--5-5-5-5-5-5-5-5-5-5-5-|
A--7-7-7-7-7-7-7-7-7-7--3-3-3-3-3-3-3-3-3-3--5-5-5-5-5-5-5-5-5-5-5-|
E--5-5-5-5-5-5-5-5-5-5--1-1-1-1-1-1-1-1-1-1--3-3-3-3-3-3-3-3-3-3-3-|

e------------------------------------------------------------------|
b------------------------------------------------------------------|
g------------------------------------------------------------------|
D--7-7-7-7-7-7-7-7-7-7--3-3-3-3-3-3-3-3-3-3--5-5-5-5-5-5-5-5-5-5-5-|
A--7-7-7-7-7-7-7-7-7-7--3-3-3-3-3-3-3-3-3-3--5-5-5-5-5-5-5-5-5-5-5-|
E--5-5-5-5-5-5-5-5-5-5--1-1-1-1-1-1-1-1-1-1--3-3-3-3-3-3-3-3-3-3-3-|

e-----------------------------------------------------------------|
b-----------------------------------------------------------------|
g-----------------------------------------------------------------|
D--7-7-7-7-7-7-7-7-7-7--3-3-3-3-3-3-3-3-3-3--5-5-5-5-5-5-5-5-5-5-5|
A--7-7-7-7-7-7-7-7-7-7--3-3-3-3-3-3-3-3-3-3--5-5-5-5-5-5-5-5-5-5-5|
E--5-5-5-5-5-5-5-5-5-5--1-1-1-1-1-1-1-1-1-1--3-3-3-3-3-3-3-3-3-3-3|

Intro

|e----------------------------------------------------------|
|b----------------------------------------------------------|
|g----------------------------------------------------------|
|D---7-7-7-7-7--5--3-3-3-3-3--5--7-7-7-7-7--5--3-3-3-3-3--5-|
|A---7-7-7-7-7--5--3-3-3-3-3--5--7-7-7-7-7--5--3-3-3-3-3--5-|
|E---5-5-5-5-5--3--1-1-1-1-1--3--5-5-5-5-5--3--1-1-1-1-1--3-|

e---------------------------------------------------------|
b---------------------------------------------------------|
g---------------------------------------------------------|
D---7-7-7-7-7--5--3-3-3-3-3--5--7-7-7-7-7--5--3-3-3-3-3--5|
A---7-7-7-7-7--5--3-3-3-3-3--5--7-7-7-7-7--5--3-3-3-3-3--5|
E---5-5-5-5-5--3--1-1-1-1-1--3--5-5-5-5-5--3--1-1-1-1-1--3|

Verse

|e------------------------------------------|
|b------------------------------------------|
|g------------------------------------------|
|D---7-7-7-7-7-7-7--3-3-3-3-3-3-3-3--5-5-5--|
|A---7-7-7-7-7-7-7--3-3-3-3-3-3-3-3--5-5-5--|
|E---5-5-5-5-5-5-5--1-1-1-1-1-1-1-1--3-3-3--|

e------------------------------------------|
b------------------------------------------|
g------------------------------------------|
D---7-7-7-7-7-7-7--3-3-3-3-3-3-3-3--5-5-5--|
A---7-7-7-7-7-7-7--3-3-3-3-3-3-3-3--5-5-5--|
E---5-5-5-5-5-5-5--1-1-1-1-1-1-1-1--3-3-3--|

e------------------------------------------|
b------------------------------------------|
g------------------------------------------|
D---7-7-7-7-7-7-7--3-3-3-3-3-3-3-3--5-5-5--|
A---7-7-7-7-7-7-7--3-3-3-3-3-3-3-3--5-5-5--|
E---5-5-5-5-5-5-5--1-1-1-1-1-1-1-1--3-3-3--|

e------------------------------------------|
b------------------------------------------|
g------------------------------------------|
D---7-7-7-7-7-7-7--3-3-3-3-3-3-3-3--5-5-5--|
A---7-7-7-7-7-7-7--3-3-3-3-3-3-3-3--5-5-5--|
E---5-5-5-5-5-5-5--1-1-1-1-1-1-1-1--3-3-3--|

Chorus

|e------------------------------------------------------------------|
|b------------------------------------------------------------------|
|g------------------------------------------------------------------|
|D--7-7-7-7-7-7-7-7-7-7--3-3-3-3-3-3-3-3-3-3--5-5-5-5-5-5-5-5-5-5-5-|
|A--7-7-7-7-7-7-7-7-7-7--3-3-3-3-3-3-3-3-3-3--5-5-5-5-5-5-5-5-5-5-5-|
|E--5-5-5-5-5-5-5-5-5-5--1-1-1-1-1-1-1-1-1-1--3-3-3-3-3-3-3-3-3-3-3-|

e------------------------------------------------------------------|
b------------------------------------------------------------------|
g------------------------------------------------------------------|
D--7-7-7-7-7-7-7-7-7-7--3-3-3-3-3-3-3-3-3-3--5-5-5-5-5-5-5-5-5-5-5-|
A--7-7-7-7-7-7-7-7-7-7--3-3-3-3-3-3-3-3-3-3--5-5-5-5-5-5-5-5-5-5-5-|
E--5-5-5-5-5-5-5-5-5-5--1-1-1-1-1-1-1-1-1-1--3-3-3-3-3-3-3-3-3-3-3-|

e------------------------------------------------------------------|
b------------------------------------------------------------------|
g------------------------------------------------------------------|
D--7-7-7-7-7-7-7-7-7-7--3-3-3-3-3-3-3-3-3-3--5-5-5-5-5-5-5-5-5-5-5-|
A--7-7-7-7-7-7-7-7-7-7--3-3-3-3-3-3-3-3-3-3--5-5-5-5-5-5-5-5-5-5-5-|
E--5-5-5-5-5-5-5-5-5-5--1-1-1-1-1-1-1-1-1-1--3-3-3-3-3-3-3-3-3-3-3-|

e------------------------------------------------------------------|
b------------------------------------------------------------------|
g------------------------------------------------------------------|
D--7-7-7-7-7-7-7-7-7-7--3-3-3-3-3-3-3-3-3-3--5-5-5-5-5-5-5-5-5-5-5-|
A--7-7-7-7-7-7-7-7-7-7--3-3-3-3-3-3-3-3-3-3--5-5-5-5-5-5-5-5-5-5-5-|
E--5-5-5-5-5-5-5-5-5-5--1-1-1-1-1-1-1-1-1-1--3-3-3-3-3-3-3-3-3-3-3-|

e------------------------------------------------------------------|
b------------------------------------------------------------------|
g------------------------------------------------------------------|
D--7-7-7-7-7-7-7-7-7-7--3-3-3-3-3-3-3-3-3-3--5-5-5-5-5-5-5-5-5-5-5-|
A--7-7-7-7-7-7-7-7-7-7--3-3-3-3-3-3-3-3-3-3--5-5-5-5-5-5-5-5-5-5-5-|
E--5-5-5-5-5-5-5-5-5-5--1-1-1-1-1-1-1-1-1-1--3-3-3-3-3-3-3-3-3-3-3-|

e-----------------------------------------------------------------|
b-----------------------------------------------------------------|
g-----------------------------------------------------------------|
D--7-7-7-7-7-7-7-7-7-7--3-3-3-3-3-3-3-3-3-3--5-5-5-5-5-5-5-5-5-5-5|
A--7-7-7-7-7-7-7-7-7-7--3-3-3-3-3-3-3-3-3-3--5-5-5-5-5-5-5-5-5-5-5|
E--5-5-5-5-5-5-5-5-5-5--1-1-1-1-1-1-1-1-1-1--3-3-3-3-3-3-3-3-3-3-3|

Enjoy!!

Gabba Gabba Hey!!!
Tap to rate this tab
# A B C D E F G H I J K L M N O P Q R S T U V W X Y Z