Song name
# A B C D E F G H I J K L M N O P Q R S T U V W X Y Z

Ramones - Endless Vacation tab

++++++++RAMONES+++++++++
++++ENDLESS VACATION++++
This song is SOOO simple (like every other Ramones song). The strumming pattern might be 
bit off but everything else is fine. If someone could post the lyrics to the verse, 
would be great cos its hard to understand him.

CHORUS
e---------------------------|
B---------------------------|
G-8--8--8-8-8--6--6--6-6-6--|
D-9--9--9-9-9--7--7--7-7-7--|
A-9--9--9-9-9--7--7--7-7-7--|
E-7--7--7-7-7--5--5--5-5-5--|
 "Endless Vacation...."

VERSE
e---------------------------------|
B---------------------------------|
G---------------------------------|
D-8/9-9-9-8/9-9-9-8/9-9-9-8/9-9-9-|
A-8/9-9-9-8/9-9-9-8/9-9-9-8/9-9-9-|
E-6/7-7-7-6/7-7-7-6/7-7-7-6/7-7-7-|
 "???..."

After you play those a few times, the tempo changes.

e-----------------------------------------|
B-----------------------------------------|
G-----------------------------------------|
D-7--7--7--7--7--7--7--7--8/9-9-9-8/9-9-9-|
A-7--7--7--7--7--7--7--7--8/9-9-9-8/9-9-9-|
E-5--5--5--5--5--5--5--5--6/7-7-7-6/7-7-7-|
 "Hey hey hey...."

Then play the chorus and youre done. Such an easy tab. Listen to the song to get the 
pattern for the chorus. thanks for looking and PLEASE RATE!
Tap to rate this tab
# A B C D E F G H I J K L M N O P Q R S T U V W X Y Z