Song name
# A B C D E F G H I J K L M N O P Q R S T U V W X Y Z

Ramones - Makin Monsters For My Friends tab

Artist: Ramones
Song: Makin Monsters For My Friends
Album: Adios Amigos [1996]
Cover from Dee Dee Ramone, album I Hate Freaks Like You [1994]

----------

Riff 1 [4 times]

e---------------------|
B---------------------|
G---------------------|
D--8-8-8-8-8--5-5-5-5-|
A--8-8-8-8-8--5-5-5-5-|
E--6-6-6-6-6--3-3-3-3-|

Verse [8 times]

e------------------------------------------------|
B------------------------------------------------|
G------------------------------------------10-10-|
D--10-10-10-10-10-10-10-10-10-10-10-10-10--10-10-|
A--10-10-10-10-10-10-10-10-10-10-10-10-10--8--8--|
E--8--8--8--8--8--8--8--8--8--8--8--8--8---------|

Chorus [2 times]

e---------------------------------------------|
B---------------------------------------------|
G--10-10--5-5--8-8-------5-5-5-5-5--10--------|
D--10-10--5-5--8-8--5-5--5-5-5-5-5--10--10-10-|
A--8--8---3-3--6-6--5-5--3-3-3-3-3--8---10-10-|
E-------------------3-3-----------------8--8--|

Bridge [4 times]

e----------------------------|
B----------------------------|
G-------------------------10-|
D--10-10-10-10-10--8--10--10-|
A--10-10-10-10-10--8--10--8--|
E--8--8--8--8--8---6--8------|


Song structure:

Riff 1
Verse
Chorus
Riff 1 [2 times instead of 4]
Verse
Chorus
Riff 1 [2 times instead of 4]
Bridge
Verse [4 times instead of 8]
Chorus
Chorus
Riff 1
Tap to rate this tab
# A B C D E F G H I J K L M N O P Q R S T U V W X Y Z