Song name
# A B C D E F G H I J K L M N O P Q R S T U V W X Y Z

Ramones - Wart Hog tab

-----------------------------------------------------------------------------
			     Wart Hog - The Ramones
-----------------------------------------------------------------------------
Tabbed by: greendaypunkrox
Email: jjjamadori@aol.com

Tuning: Standard

Intro:
e|---------------------------------------------------------------------------|
B|---------------------------------------------------------------------------|
G|--10-----------------------------------------------------------------------|
D|--10--(x11)---10-----8---------(x4)----------------------------------------|
A|--8-----------10-----8-----------------------------------------------------|
E|--------------8------6-----------------------------------------------------|

Verse:
e|---------------------------------------------------------------------------|
B|---------------------------------------------------------------------------|
G|--10-10--------------------------------------------------------------------|
D|--10-10--6-6--8-8-8-8-8-8-8-8-------(x4)-----------------------------------|
A|--8--8---6-6--8-8-8-8-8-8-8-8----------------------------------------------|
E|---------4-4--6-6-6-6-6-6-6-6----------------------------------------------|

Little Riff Inbetween Verses:
e|---------------------------------------------------------------------------|
B|---------------------------------------------------------------------------|
G|-----6--8-8888888----------------------------------------------------------|
D|--8--6--8-8888888----(x2)--------------------------------------------------|
A|--8--4--6-6666666----------------------------------------------------------|
E|--6------------------------------------------------------------------------|

Verse 2:
e|---------------------------------------------------------------------------|
B|---------------------------------------------------------------------------|
G|--10-10--------------------------------------------------------------------|
D|--10-10--6-6--8-8-8-8-8-8-8-8-------(x4)-----------------------------------|
A|--8--8---6-6--8-8-8-8-8-8-8-8----------------------------------------------|
E|---------4-4--6-6-6-6-6-6-6-6----------------------------------------------|

Chorus:
e|---------------------------------------------------------------------------|
B|---------------------------------------------------------------------------|
G|--10-----------------------------------------------------------------------|
D|--10--(x11)---10-----8---------(x4)----------------------------------------|
A|--8-----------10-----8-----------------------------------------------------|
E|--------------8------6-----------------------------------------------------|

Verse 3:
e|---------------------------------------------------------------------------|
B|---------------------------------------------------------------------------|
G|--10-10--------------------------------------------------------------------|
D|--10-10--6-6--8-8-8-8-8-8-8-8-------(x4)-----------------------------------|
A|--8--8---6-6--8-8-8-8-8-8-8-8----------------------------------------------|
E|---------4-4--6-6-6-6-6-6-6-6----------------------------------------------|

Another Little Riff Thingy:
e|---------------------------------------------------------------------------|
B|---------------------------------------------------------------------------|
G|--8-8----------------------------------------------------------------------|
D|--8-8--9-9--6-666666-----(x4)----------------------------------------------|
A|--6-6--9-9--6-666666-------------------------------------------------------|
E|-------7-7--4-444444-------------------------------------------------------|

Verse 4:
e|---------------------------------------------------------------------------|
B|---------------------------------------------------------------------------|
G|--10-10--------------------------------------------------------------------|
D|--10-10--6-6--8-8-8-8-8-8-8-8-------(x4)-----------------------------------|
A|--8--8---6-6--8-8-8-8-8-8-8-8----------------------------------------------|
E|---------4-4--6-6-6-6-6-6-6-6----------------------------------------------|

Chorus:
e|---------------------------------------------------------------------------|
B|---------------------------------------------------------------------------|
G|--10-----------------------------------------------------------------------|
D|--10--(x11)---10-----8---------(x4)----------------------------------------|
A|--8-----------10-----8-----------------------------------------------------|
E|--------------8------6-----------------------------------------------------|

Riff Thingy #3:
e|---------------------------------------------------------------------------|
B|---------------------------------------------------------------------------|
G|-----6--8-8888888--------8--11--13--13-13-13-13-13-13-13-------------------|
D|--8--6--8-8888888--(x2)--8--11--13--13-13-13-13-13-13-13-------(x2)--------|
A|--8--4--6-6666666--------6--9---11--11-11-11-11-11-11-11-------------------|
E|--6------------------------------------------------------------------------|

Chorus:
e|---------------------------------------------------------------------------|
B|---------------------------------------------------------------------------|
G|--10-----------------------------------------------------------------------|
D|--10--(x11)---10-----8---------(x4)----------------------------------------|
A|--8-----------10-----8-----------------------------------------------------|
E|--------------8------6-----------------------------------------------------|

Riff Thingy #3 Again:
e|---------------------------------------------------------------------------|
B|---------------------------------------------------------------------------|
G|-----6--8-8888888--------8--11--13--13-13-13-13-13-13-13-------------------|
D|--8--6--8-8888888--(x2)--8--11--13--13-13-13-13-13-13-13-------(x2)--------|
A|--8--4--6-6666666--------6--9---11--11-11-11-11-11-11-11-------------------|
E|--6------------------------------------------------------------------------|

Chorus:
e|---------------------------------------------------------------------------|
B|---------------------------------------------------------------------------|
G|--10-----------------------------------------------------------------------|
D|--10--(x11)---10-----8---------(x4)----------------------------------------|
A|--8-----------10-----8-----------------------------------------------------|
E|--------------8------6-----------------------------------------------------|

Thats an awesome, quick song by The Ramones. Don't forget to VOTE!!! :)


************************************

| /   slide up
| \   slide down
| h   hammer-on
| p   pull-off
| ~   vibrato
| +   harmonic
| x   Mute note
| b   Bend
| pb  Pre-bend
| br  Bend release
| pbr Pre-bend release
| brb Bend release bend

************************************
Tap to rate this tab
 
# A B C D E F G H I J K L M N O P Q R S T U V W X Y Z