Song name
# A B C D E F G H I J K L M N O P Q R S T U V W X Y Z

Ramones - Glad To See You Go tab

Ramones - Glad to See You Go

From the album 'Leave Home' (1977)
                Written by Ramones
                Sire Records (US & UK)

Tabbed by: TheCutter





INTRO:

|----------------------------------|
|----------------------------------|
|--7--7-7-7-7-7-7-6--6-6-6-6-6-6---| x2
|--7--7-7-7-7-7-7-7--7-7-7-7-7-7---|
|--5--5-5-5-5-5-5-7--7-7-7-7-7-7---|
|-----------------5--5-5-5-5-5-5---|


VERSE:

|----------------------------------|
|----------------------------------|
|--7--7-7-7-7-7-7-6--6-6-6-6-6-6---| x2
|--7--7-7-7-7-7-7-7--7-7-7-7-7-7---|
|--5--5-5-5-5-5-5-7--7-7-7-7-7-7---|
|-----------------5--5-5-5-5-5-5---|
      Gonna take a   chance on her
      One bullet in the cylinder


|-----------------------------------|
|-----------------------------------|
|--4--4-4-4-4-4-4-4-4-4-4-4-4-4-4---|
|--5--5-5-5-5-5-5-5-5-5-5-5-5-5-5---|
|--5--5-5-5-5-5-5-5-5-5-5-5-5-5-5---|
|--3--3-3-3-3-3-3-3-3-3-3-3-3-3-3---|
      And in a moment of passion,

|-----------------------------------|
|-----------------------------------|
|--6--6-6-6-6-6-6-6-6-6-6-6-6-6-6---|
|--7--7-7-7-7-7-7-7-7-7-7-7-7-7-7---|
|--7--7-7-7-7-7-7-7-7-7-7-7-7-7-7---|
|--5--5-5-5-5-5-5-5-5-5-5-5-5-5-5---|
      Get the glory like Charles Manson


VERSE 2:

|----------------------------------|
|----------------------------------|
|--7--7-7-7-7-7-7-6--6-6-6-6-6-6---| x2
|--7--7-7-7-7-7-7-7--7-7-7-7-7-7---|
|--5--5-5-5-5-5-5-7--7-7-7-7-7-7---|
|-----------------5--5-5-5-5-5-5---|
      Gonna smile,   I'm gonna laugh
      Gonna get a blood bath


|-----------------------------------|
|-----------------------------------|
|--4--4-4-4-4-4-4-4-4-4-4-4-4-4-4---|
|--5--5-5-5-5-5-5-5-5-5-5-5-5-5-5---|
|--5--5-5-5-5-5-5-5-5-5-5-5-5-5-5---|
|--3--3-3-3-3-3-3-3-3-3-3-3-3-3-3---|
      And in a moment of passion,

|-----------------------------------|
|-----------------------------------|
|--6--6-6-6-6-6-6-6-6-6-6-6-6-6-6---|
|--7--7-7-7-7-7-7-7-7-7-7-7-7-7-7---|
|--7--7-7-7-7-7-7-7-7-7-7-7-7-7-7---|
|--5--5-5-5-5-5-5-5-5-5-5-5-5-5-5---|
      Get the glory like Charles Manson


CHORUS:
                         You gotta
|----------------------------------|
|----------------------------------|
|--7--7-7-7-7-7-7-4--4-4-4-4-4-4---| x3
|--7--7-7-7-7-7-7-5--5-5-5-5-5-5---|
|--5--5-5-5-5-5-5-5--5-5-5-5-5-5---|
|-----------------3--3-3-3-3-3-3---|
   go go go go goodbye. Glad to see you
   go go go go goodbye. Glad to see you
   go go go go goodbye

|-------------------------------------|
|-------------------------------------|
|--6--6-6-6-6-6-6-6-6-6-6-6-6-6-6-6---|
|--7--7-7-7-7-7-7-7-7-7-7-7-7-7-7-7---|
|--7--7-7-7-7-7-7-7-7-7-7-7-7-7-7-7---|
|--5--5-5-5-5-5-5-5-5-5-5-5-5-5-5-5---|
                        Glad to see you

|----------------------------------|
|----------------------------------|
|--7--7-7-7-7-7-7-4--4-4-4-4-4-4---| x3
|--7--7-7-7-7-7-7-5--5-5-5-5-5-5---|
|--5--5-5-5-5-5-5-5--5-5-5-5-5-5---|
|-----------------3--3-3-3-3-3-3---|
   go go go go goodbye. Glad to see you
   go go go go goodbye. Glad to see you
   go go go go goodbye

|-------------------------------------|
|-------------------------------------|
|--6--6-6-6-6-6-6-6-6-6-6-6-6-6-6-6---|
|--7--7-7-7-7-7-7-7-7-7-7-7-7-7-7-7---|
|--7--7-7-7-7-7-7-7-7-7-7-7-7-7-7-7---|
|--5--5-5-5-5-5-5-5-5-5-5-5-5-5-5-5---|


BRIDGE:

|----------------------------------------------------------|
|----------------------------------------------------------|
|--5--5-5-5-5-5-5-7--7-7-7-7-7-7--6--7--6--7--6--7--6--7---| x2
|--5--5-5-5-5-5-5-7--7-7-7-7-7-7--7--7--7--5--7--5--7--5---|
|--3--3-3-3-3-3-3-5--5-5-5-5-5-5--7--5--7--5--7--5--7--5---|
|---------------------------------5-----5-----5-----5------|
   Now     I       know the score
   I  don't  need  you  anymore

|----------------------------------------------------------------|
|----------------------------------------------------------------|
|-5--5-5-5-5-5-5-6--6-6-6-6-6-6-8--8-8-8-8-8-8-8-8-8-8-8-8-8-8---|
|-5--5-5-5-5-5-5-5--5-5-5-5-5-5-9--9-9-9-9-9-9-9-9-9-9-9-9-9-9---|
|-3--3-3-3-3-3-3-5--5-5-5-5-5-5-7--9-9-9-9-9-9-9-9-9-9-9-9-9-9---|
|----------------3--3-3-3-3-3-3-7--7-7-7-7-7-7-7-7-7-7-7-7-7-7---|
  Don't want you 'cause you're a bore


VERSE 3:

|----------------------------------|
|----------------------------------|
|--9--9-9-9-9-9-9-8--8-8-8-8-8-8---| x2
|--9--9-9-9-9-9-9-9--9-9-9-9-9-9---|
|--7--7-7-7-7-7-7-9--9-9-9-9-9-9---|
|-----------------7--7-7-7-7-7-7---|
      I need somebody good
      I need a miracle


|-----------------------------------|
|-----------------------------------|
|--6--6-6-6-6-6-6-6-6-6-6-6-6-6-6---|
|--7--7-7-7-7-7-7-7-7-7-7-7-7-7-7---|
|--7--7-7-7-7-7-7-7-7-7-7-7-7-7-7---|
|--5--5-5-5-5-5-5-5-5-5-5-5-5-5-5---|
      Should I take a chance on her?

|-----------------------------------|
|-----------------------------------|
|--8--8-8-8-8-8-8-8-8-8-8-8-8-8-8---|
|--9--9-9-9-9-9-9-9-9-9-9-9-9-9-9---|
|--9--9-9-9-9-9-9-9-9-9-9-9-9-9-9---|
|--7--7-7-7-7-7-7-7-7-7-7-7-7-7-7---|
      One bullet in the cylinder


VERSE 4:
|----------------------------------|
|----------------------------------|
|--9--9-9-9-9-9-9-8--8-8-8-8-8-8---| x2
|--9--9-9-9-9-9-9-9--9-9-9-9-9-9---|
|--7--7-7-7-7-7-7-9--9-9-9-9-9-9---|
|-----------------7--7-7-7-7-7-7---|
      Gonna smile,  I'm gonna laugh
      You're gonna want my autograph

|-----------------------------------|
|-----------------------------------|
|--6--6-6-6-6-6-6-6-6-6-6-6-6-6-6---|
|--7--7-7-7-7-7-7-7-7-7-7-7-7-7-7---|
|--7--7-7-7-7-7-7-7-7-7-7-7-7-7-7---|
|--5--5-5-5-5-5-5-5-5-5-5-5-5-5-5---|
      And in a moment of passion,

|-----------------------------------|
|-----------------------------------|
|--8--8-8-8-8-8-8-8-8-8-8-8-8-8-8---|
|--9--9-9-9-9-9-9-9-9-9-9-9-9-9-9---|
|--9--9-9-9-9-9-9-9-9-9-9-9-9-9-9---|
|--7--7-7-7-7-7-7-7-7-7-7-7-7-7-7---|
      Get the glory like Charles Manson

CHORUS:
                           You gotta
|----------------------------------|
|----------------------------------|
|--9--9-9-9-9-9-9-6--6-6-6-6-6-6---| x3
|--9--9-9-9-9-9-9-7--7-7-7-7-7-7---|
|--7--7-7-7-7-7-7-7--7-7-7-7-7-7---|
|-----------------5--5-5-5-5-5-5---|
   go go go go    goodbye. Glad to see you
   go go go go    goodbye. Glad to see you
   go go go go    goodbye

|-------------------------------------|
|-------------------------------------|
|--8--8-8-8-8-8-8-8-8-8-8-8-8-8-8-8---|
|--9--9-9-9-9-9-9-9-9-9-9-9-9-9-9-9---|
|--9--9-9-9-9-9-9-9-9-9-9-9-9-9-9-9---|
|--7--7-7-7-7-7-7-7-7-7-7-7-7-7-7-7---|
                           Glad to see you

|----------------------------------|
|----------------------------------|
|--9--9-9-9-9-9-9-6--6-6-6-6-6-6---| x3
|--9--9-9-9-9-9-9-7--7-7-7-7-7-7---|
|--7--7-7-7-7-7-7-7--7-7-7-7-7-7---|
|-----------------5--5-5-5-5-5-5---|
   go go go go    goodbye. Glad to see you
   go go go go    goodbye. Glad to see you
   go go go go    goodbye

|------|
|------|
|--8---|
|--9---|
|--9---|
|--7---|
   Go go go go


|----------------------------------|
|----------------------------------|
|--9--9-9-9-9-9-9-6--6-6-6-6-6-6---| x11
|--9--9-9-9-9-9-9-7--7-7-7-7-7-7---|
|--7--7-7-7-7-7-7-7--7-7-7-7-7-7---|
|-----------------5--5-5-5-5-5-5---|
   Goodbye
   Goodbye
   Goodbye
  (go go go go    goodbye. Glad to see you)
   Goodbye
  (go go go go    goodbye. Glad to see you)
   Goodbye
  (go go go go    goodbye. Glad to see you)
   Goodbye
  (go go go go    goodbye. Glad to see you)
   Goodbye
  (go go go go    goodbye. Glad to see you)
   Goodbye
  (go go go go    goodbye. Glad to see you)
   Goodbye
  (go go go go    goodbye. Glad to see you)
   Goodbye
  (go go go go    goodbye. Glad to see you)
   Goodbye
  (go go go go    goodbye. Glad to see you)

|---------------------|
|---------------------|
|--9--9-9-9-9-9-9-6---|
|--9--9-9-9-9-9-9-7---|
|--7--7-7-7-7-7-7-7---|
|-----------------5---|
   Goodbye
  (go go go go    goodbye.)
Tap to rate this tab
 
# A B C D E F G H I J K L M N O P Q R S T U V W X Y Z