Song name
# A B C D E F G H I J K L M N O P Q R S T U V W X Y Z

Ramones - 53rd & 3rd tab

Verse
e-----------------------
B-----------------------
G---------------7-7-----
D---------2-----7-7-7-7-
A-2-2-2-2-2-2-2-5-5-7-7-
E-0-0-0-0-0-0-0-----5-5-

Chorus 1
e---------------------------------
B---------------------------------
G-7-7-7-7-------------------------
D-7-7-7-7-7-7-7-7-5-5-5-5-7-7-7-7-
A-5-5-5-5-7-7-7-7-5-5-5-5-7-7-7-7-
E---------5-5-5-5-3-3-3-3-5-5-5-5-

Interlude 
Part 1
e---------------------------------
B---------------------------------
G---------------------------------
D-9-9-9-9-9-9-9-9-7-7-7-7-7-7-7-7-
A-9-9-9-9-9-9-9-9-7-7-7-7-7-7-7-7-
E-7-7-7-7-7-7-7-7-5-5-5-5-5-5-5-5-

Part 2
e---------------------------------
B---------------------------------
G---------------------------------
D-5-5-5-5-5-5-5-5-7-7-7-7-7-7-7-7-
A-5-5-5-5-5-5-5-5-7-7-7-7-7-7-7-7-
E-3-3-3-3-3-3-3-3-5-5-5-5-5-5-5-5-

Chorus 2 (Chorus 1 up a step)
e---------------------------------
B---------------------------------
G-9-9-9-9-------------------------
D-9-9-9-9-9-9-9-9-7-7-7-7-9-9-9-9-
A-7-7-7-7-9-9-9-9-7-7-7-7-9-9-9-9-
E---------7-7-7-7-5-5-5-5-7-7-7-7-

Song Progression
Verse            x6
Chorus 1         x4
Verse            x4
Chorus 1         x4
Interlude part 1 x2
Interlude part 2 x2
Chorus 2         x4
Verse            repeat and fade
Tap to rate this tab
 
# A B C D E F G H I J K L M N O P Q R S T U V W X Y Z