Guitaretab - guitar tabs
Song name
# A B C D E F G H I J K L M N O P Q R S T U V W X Y Z

Ramones - What A Wonderful World tab

iNTRO

e:-------------------|   (X 8)
B:-------------------|
G:-------------------|
D:-------3-3---------|
A:---------------3-3-|
E:---1-1-----1-1-----|

vERSE 1

e:------------------------------------------------------|
B:------------------------------------------------------|
G:--2------------5------------7------------5------------|
D:--3-3-3-3-3-3--7-7-7-7-7-7--8-8-8-8-8-8--7-7-7-7-7-7--|
A:--3-3-3-3-3-3--7-7-7-7-7-7--8-8-8-8-8-8--7-7-7-7-7-7--|
E:--1-1-1-1-1-1--5-5-5-5-5-5--6-6-6-6-6-6--5-5-5-5-5-5—-|
    Trees of     green        Red roses    too


e:------------------------------------------------------|
B:----------------------------8------------6------------|
G:--3------------2------------6------------7-7-7-7-7-7--|
D:--5-5-5-5-5-5--3-3-3-3-3-3--5------------7-7-7-7-7-7--|
A:--5-5-5-5-5-5--3-3-3-3-3-3--7-7-7-7-7-7--5-5-5-5-5-5--|
E:--3-3-3-3-3-3--1-1-1-1-1-1--5-5-5-5-5-5---------------|
    I see them   bloom        for me and   you

									           (x2)
e:--4-----------------------------3--------|------------------|
B:--6-----------------------------5--------|------------------|
G:--6-------1----------3----------5--------|-9/10-10-10-10-10-|
D:--6---1h3---3p1------3----------5--------|-9/10-10-10-10-10—|
A:--4-------------4----1----------3--------|-7/8--8--8—-8—8-—-|
E:-----------------------------------------|------------------|
   And I  		    what 	a   wonderful   wo -  o  -
  Say to
  myself

e:---------------|
B:---------------|
G:--4/5-5-5--5-5-|
D:--4/5—5-5--5-5-|
A:--2/3-3-3—-3-3-|
E:---------------|
    o  -  orld

vERSE 2

e:---------------------------------------------------------|
B:---------------------------------------------------------|
G:-----2------------5------------7------------5------------|
D:-----3-3-3-3-3-3--7-7-7-7-7-7--8-8-8-8-8-8--7-7-7-7-7-7--|
A:-----3-3-3-3-3-3--7-7-7-7-7-7--8-8-8-8-8-8--7-7-7-7-7-7--|
E:-----1-1-1-1-1-1--5-5-5-5-5-5--6-6-6-6-6-6--5-5-5-5-5-5—-|
I see skies   of    blue         and clouds of white

e:------------------------------------------------------|
B:----------------------------8------------6------------|
G:--3------------2------------6------------7-7-7-7-7-7--|
D:--5-5-5-5-5-5--3-3-3-3-3-3--5------------7-7-7-7-7-7--|
A:--5-5-5-5-5-5--3-3-3-3-3-3--7-7-7-7-7-7--5-5-5-5-5-5--|
E:--3-3-3-3-3-3--1-1-1-1-1-1--5-5-5-5-5-5---------------|
    Btight sunny days         dark sacred  nights

									           (x2)
e:--4-----------------------------3--------|------------------|
B:--6-----------------------------5--------|------------------|
G:--6-------1----------3----------5--------|-9/10-10-10-10-10-|
D:--6---1h3---3p1------3----------5--------|-9/10-10-10-10-10—|
A:--4-------------4----1----------3--------|-7/8--8--8—-8—8-—-|
E:-----------------------------------------|------------------|
And i think            what a wonderful  world
To myself


             (x3)
e: |------------|------|
B: |------------|------|
G: |-9/10-10-10-|10-10-|
D: |-9/10-10-10-|10-10-|
A: |-7/8--8--8—-|8--8—-|
E: |------------|------|
                   The..


iNTERLUDE
[ Tab from: http://www.guitaretab.com/r/ramones/25034.html ]
e:------------------------------------1-----|
B:---------------------1--------------3--1--|
G:---------------------2--------------3--2--|
D:-------10------------3--------------3--3—-|
A:-------10------------3---------—----1--3--|
E:-------8-------------1-----------------1--|
    ..  colors..     ..pretty .. skies


e:-------3------------3----------------1-----|
B:-------5------------5-1--------------3--1--|
G:-------5------------5-2--------------3--2--|
D:-------5------------5-3--------------3--3--|
A:-------3------------3-3---------—----1--3--|
E:----------------------1-----------------1--|
    Are also..     ..people..       by

				(x3)
e:-------5-------5-----|-------------------|-------|
B:-------6-------5-----|-------------------|-------|
G:-------7-------6-----|-------------------|-------|
D:-------7-------7-----|---8---7-----5---5—|-5-5-5—|
A:-------5-------7-----|---8---7----—5---5-|-5-5-5—|
E:---------------5-----|---6---5-----3---3-|-3-3-3-|
 I see friends..           I   love  you      I see..

vERSE 3 + eND

e:------------------------------------------------------|
B:------------------------------------------------------|
G:--2------------5------------7------------5------------|
D:--3-3-3-3-3-3--7-7-7-7-7-7--8-8-8-8-8-8--7-7-7-7-7-7--|
A:--3-3-3-3-3-3--7-7-7-7-7-7--8-8-8-8-8-8--7-7-7-7-7-7--|
E:--1-1-1-1-1-1--5-5-5-5-5-5--6-6-6-6-6-6--5-5-5-5-5-5—-|
... Babies       cry          I watch them grow


e:------------------------------------------------------|
B:----------------------------8------------6------------|
G:--3------------2------------6------------7-7-7-7-7-7--|
D:--5-5-5-5-5-5--3-3-3-3-3-3--5------------7-7-7-7-7-7--|
A:--5-5-5-5-5-5--3-3-3-3-3-3--7-7-7-7-7-7--5-5-5-5-5-5--|
E:--3-3-3-3-3-3--1-1-1-1-1-1--5-5-5-5-5-5---------------|
   They’ll ...   more  than   I’ll ever    know


e:--4---------------------------3------------------6-6-66--5-5-55--|
B:--6---------------------------5------------------8-8-88--7-7-77--|
G:--6-------1--------3----------5---------10-10-10-8-8-88--7-7-77--|
D:--6---1h3---3p1----3----------5---------10—10-10-8-8-88--7-7-77--|
A:--4-------------4--1----------3---------8—-8--8--6-6-66--5-5-55--|
E:-----------------------------------------------------------------|
   And I  		  what  a   wonderful  wo -    o  -    orld
think to
  myself

(x2)
e:--------------3--------|-8--8---8-8-----6-6-66--5-5-55--5-5-55-|
B:-- 3----------5--------|-10-10--1010----8-8-88--7-7-77--7-7-77-|
G:---4----------5--------|-10-10--1010----8-8-88--7-7-77--7-7-77-|
D:---5----------5--------|-10—10--1010----8-8-88--7-7-77--7-7-77-|
A:---5----------3--------|-8—-8---8-8-----6-6-66--5-5-55--5-5-55-|
E:---3-------------------|---------------------------------------|
Yes,I think     what a     wo  -   o   -   orld
 to myself      wonderful


e:---------------3---------6-------------6------------8--|-------|
B:---------------5---------6-------------8------------10-|-------|
G:----3----------5------|--6-----1-------8-----3-3-33-10-|-------|
D:----3----------5------|--6—1h3---3p1---8-3h5—-------10-|-------|
A:----1----------3------|--4-----------4-6------------8--|-8x----|
E:-------------------------------------------------------|-------|
And i say to      what a   wo  -   o -   o -   orld
     Myself       wonderful
Related for What A Wonderful World tab