Ramones - Its Gonna Be Alright tab

Great song. This is my first tab.

Intro
    E5     E5
e|---------------------------------------------------------------|
B|---------------------------------------------------------------|
G|-9-9----9-9-9-9------------------------------------------------|
D|-9-9----9-9-9-9------------------------------------------------|
A|-7-7----7-7-7-7------------------------------------------------|
E|---------------------------------------------------------------|

1 Verse
   A5   F#5  E5   A5   F#5  C#5 
e|---------------------------------------------------------------|
B|---------------------------------------------------------------|
G|--------------------------6------------------------------------|
D|-7----4----2----7----4----6------------------------------------|
A|-7----4----2----7----4----4------------------------------------|
E|-5----2----0----5----2-----------------------------------------|

Pre-chorus
   D5   E5   A5  F#5   D5   E5
e|---------------------------------------------------------------|
B|---------------------------------------------------------------|
G|-7----9--------------7----9------------------------------------|
D|-7----9----7----4----7----9------------------------------------|
A|-5----7----7----4----5----7------------------------------------|
E|-----------5----2----------------------------------------------|

2 Verse
   A5   F#5  E5   A5   F#5  C#5 
e|---------------------------------------------------------------|
B|---------------------------------------------------------------|
G|--------------------------6------------------------------------|
D|-7----4----2----7----4----6------------------------------------|
A|-7----4----2----7----4----4------------------------------------|
E|-5----2----0----5----2-----------------------------------------|

Pre-chorus
   D5   E5   A5  F#5   D5   E5
e|---------------------------------------------------------------|
B|---------------------------------------------------------------|
G|-7----9--------------7----9------------------------------------|
D|-7----9----7----4----7----9------------------------------------|
A|-5----7----7----4----5----7------------------------------------|
E|-----------5----2----------------------------------------------|

Chorus (x2)
   A5   D5   E5 (x2)   A5   F#5  E5
e|---------------------------------------------------------------|
B|---------------------------------------------------------------|
G|------7----9---------------------------------------------------|
D|-7----7----9---------7----4----2-------------------------------|
A|-7----5----7---------7----4----2-------------------------------|
E|-5-------------------5----2----0-------------------------------|

3 Verse
   A5   F#5  E5   A5   F#5  C#5 
e|---------------------------------------------------------------|
B|---------------------------------------------------------------|
G|--------------------------6------------------------------------|
D|-7----4----2----7----4----6------------------------------------|
A|-7----4----2----7----4----4------------------------------------|
E|-5----2----0----5----2-----------------------------------------|

Pre-chorus
   D5   E5   A5  F#5   D5    E5
e|---------------------------------------------------------------|
B|---------------------------------------------------------------|
G|-7----9--------------7----9------------------------------------|
D|-7----9----7----4----7----9------------------------------------|
A|-5----7----7----4----5----7------------------------------------|
E|-----------5----2----------------------------------------------|

Chorus (x2)
   A5   D5   E5 (x2)   A5   F#5  E5
e|---------------------------------------------------------------|
B|---------------------------------------------------------------|
G|------7----9---------------------------------------------------|
D|-7----7----9---------7----4----2-------------------------------|
A|-7----5----7---------7----4----2-------------------------------|
E|-5-------------------5----2----0-------------------------------|

Bridge (x4)
   D5   C#5  D5  E5  
e|---------------------------------------------------------------|
B|---------------------------------------------------------------|
G|-7----6----7----9----------------------------------------------|
D|-7----6----7----9----------------------------------------------|
A|-5----4----5----7----------------------------------------------|
E|---------------------------------------------------------------|

Chorus (x2)
   A5   D5   E5 (x2)   A5   F#5  E5
e|---------------------------------------------------------------|
B|---------------------------------------------------------------|
G|------7----9---------------------------------------------------|
D|-7----7----9---------7----4----2-------------------------------|
A|-7----5----7---------7----4----2-------------------------------|
E|-5-------------------5----2----0-------------------------------|

   A5   D5   E5 (x4) 
e|---------------------------------------------------------------|
B|---------------------------------------------------------------|
G|------7----9---------------------------------------------------|
D|-7----7----9---------------------------------------------------|
A|-7----5----7---------------------------------------------------|
E|-5-------------------------------------------------------------|

Outro

   A5   D5   E5 (x1)
e|---------------------------------------------------------------|
B|---------------------------------------------------------------|
G|------7----9---------------------------------------------------|
D|-7----7----9---------------------------------------------------|
A|-7----5----7---------------------------------------------------|
E|-5-------------------------------------------------------------|

IT'S GONNA BE ALRIGHT
Joey Ramone, Andy Shernoff

To our fans far and near
We're so glad you could all be here

And when life get so-oh-oh hard
You make it all worthwhile
Screaming, shouting, wham-slam-bam
Now wild hair is back in style

This is dedicated to our fans across the world
You're the best, most loyalist, and that's for sure

When life gets oh so frustrating
You make it all worthwhile
Gonna have some fun tonight
Ain't it great to be alive

It's gonna be OK
It's gonna be alright
It's gonna be that you're the only ones who understand

It's gonna be OK
It's gonna be alright
It's gonna be that you're the only ones who understand

Got good feelings about this year
All is very well, C.J. is here

'92 spells more fun, 
Letís get into gear
It's the year of the monkey, gonna be real funky
Buy yourself a beer

It's gonna be OK
It's gonna be alright
It's gonna be that you're the only ones who understand

It's gonna be OK
It's gonna be alright
It's gonna be that you're the only ones who understand

It's gonna be alright
It's gonna be alright
It's gonna be alright

It's gonna be OK, yeah, yeah
It's gonna be alright, uh, huh
It's gonna be that you're the only ones who understand

It's gonna be OK, yeah, yeah
It's gonna be alright, uh, huh
It's gonna be that you're the only ones who understand

Who understand?

It's gonna be alright, yeah, yeah
It's gonna be OK, yeah, yeah
It's gonna be alright, yeah, yeah
It's gonna be alright, yeah, yeah
Tap to rate this tab
 
# A B C D E F G H I J K L M N O P Q R S T U V W X Y Z