Ramones - Why Is It Always This Way tab

Main Riff        x8
E------------------|
B------------------| 
G-----6-6-11111111-|
D-9-9-6-6-11111111-|
A-9-9-4-4-9-9-9-9--|
E-7-7--------------|

Bridge
E----------------------------------------------------------|
B----------------------------------------------------------|
G-9-9-9-9-9-9-9-9-11111111-----9-9-9-9-9-9-9-9-6-6-6-6-6-6-|
D-9-9-9-9-9-9-9-9-11111111-9-7-9-9-9-9-9-9-9-9-6-6-6-6-6-6-|
A-7-7-7-7-7-7-7-7-9-9-9-9--9-7-7-7-7-7-7-7-7-7-4-4-4-4-4-4-|
E--------------------------7-5-----------------------------|

E---------------------------------------------------|
B---------------------------------------------------|
G---------------------------------------------------|
D-6/7-7-7-6/7-7-7-6/7-7-7-6/7-7-7-7-9-9-9-9-9-9-9-9-|
A-6/7-7-7-6/7-7-7-6/7-7-7-6/7-7-7-7-9-9-9-9-9-9-9-9-|
E-4/5-5-5-4/5-5-5-4/5-5-5-4/5-5-5-5-7-7-7-7-7-7-7-7-|

E----------------------------------------------------|
B----------------------------------------------------|
G----------------------------------------------------|
D-6/7-7-7-6/7-7-7-6/7-7-7-6/7-7-7-7-9-9-9-9-11111111-|
A-6/7-7-7-6/7-7-7-6/7-7-7-6/7-7-7-7-9-9-9-9-11111111-|
E-4/5-5-5-4/5-5-5-4/5-5-5-4/5-5-5-5-7-7-7-7-9-9-9-9--|

Main Riff        x8
E------------------|
B------------------| 
G-----6-6-11111111-|
D-9-9-6-6-11111111-|
A-9-9-4-4-9-9-9-9--|
E-7-7--------------|

Bridge
E----------------------------------------------------------|---------------|
B----------------------------------------------------------|---------------|
G-9-9-9-9-9-9-9-9-11111111-----9-9-9-9-9-9-9-9-6-6-6-6-6-6-|---------------|
D-9-9-9-9-9-9-9-9-11111111-9-7-9-9-9-9-9-9-9-9-6-6-6-6-6-6-|-9-9-9-9-9-9-9-|
A-7-7-7-7-7-7-7-7-9-9-9-9--9-7-7-7-7-7-7-7-7-7-4-4-4-4-4-4-|-9-9-9-9-9-9-9-|
E--------------------------7-5-----------------------------|-7-7-7-7-7-7-7-|

E---------------------------------------------------|
B---------------------------------------------------|
G---------------------------------------------------|
D-6/7-7-7-6/7-7-7-6/7-7-7-6/7-7-7-7-9-9-9-9-9-9-9-9-|
A-6/7-7-7-6/7-7-7-6/7-7-7-6/7-7-7-7-9-9-9-9-9-9-9-9-|
E-4/5-5-5-4/5-5-5-4/5-5-5-4/5-5-5-5-7-7-7-7-7-7-7-7-|

E----------------------------------------------------|
B----------------------------------------------------|
G----------------------------------------------------|
D-6/7-7-7-6/7-7-7-6/7-7-7-6/7-7-7-7-9-9-9-9-11111111-|
A-6/7-7-7-6/7-7-7-6/7-7-7-6/7-7-7-7-9-9-9-9-11111111-|
E-4/5-5-5-4/5-5-5-4/5-5-5-4/5-5-5-5-7-7-7-7-9-9-9-9--|

Main Riff        x8
E------------------|
B------------------| 
G-----6-6-11111111-|
D-9-9-6-6-11111111-|
A-9-9-4-4-9-9-9-9--|
E-7-7--------------|
Tap to rate this tab
 
# A B C D E F G H I J K L M N O P Q R S T U V W X Y Z