Ramones - I Cant Give You Anything tab

Main Riff      x2
E----------------|
B----------------|
G-5-5-----5------|
D-5-5-3-3-5--5-5-|
A-3-3-3-3-3--5-5-|
E-----1-1----3-3-|

Verse                                                 x3
E---------------------------------|---------------------|
B---------------------------------|---------------------|
G---------------------------------|---------------5-----|
D-5-5-5-5-5-5-5-5-3-3-3-3-3-3-3-3-|-5-5-5-5-5-5---5---5-|
A-5-5-5-5-5-5-5-5-3-3-3-3-3-3-3-3-|-5-5-5-5-5-5---3---5-|
E-3-3-3-3-3-3-3-3-1-1-1-1-1-1-1-1-|-3-3-3-3-3-3-------3-|

Main Riff      x2
E----------------|
B----------------|
G-5-5-----5------|
D-5-5-3-3-5--5-5-|
A-3-3-3-3-3--5-5-|
E-----1-1----3-3-|

Verse                                                 x3
E---------------------------------|---------------------|
B---------------------------------|---------------------|
G---------------------------------|---------------5-----|
D-5-5-5-5-5-5-5-5-3-3-3-3-3-3-3-3-|-5-5-5-5-5-5---5---5-|
A-5-5-5-5-5-5-5-5-3-3-3-3-3-3-3-3-|-5-5-5-5-5-5---3---5-|
E-3-3-3-3-3-3-3-3-1-1-1-1-1-1-1-1-|-3-3-3-3-3-3-------3-|

Main Riff      x2
E----------------|
B----------------|
G-5-5-----5------|
D-5-5-3-3-5--5-5-|
A-3-3-3-3-3--5-5-|
E-----1-1----3-3-|

Bridge ("You think that i'm real cute...")
E-----------------|-----------------|-----------------|-----------------|
B-----------------|-----------------|-----------------|-----------------|
G-----5-5---------|-----5-5---------|-----5-5---------|-----5-5---------|
D-3-3-5-5-5---5-5-|-3-3-5-5-5---5-5-|-3-3-5-5-5---5-5-|-3-3-5-5-5---5-5-|
A-3-3-3-3-5---5-5-|-3-3-3-3-5---5-5-|-3-3-3-3-5---5-5-|-3-3-3-3-5---5-5-|
E-1-1-----3---3-3-|-1-1-----3---3-3-|-1-1-----3---3-3-|-1-1-----3---3-3-|

Main Riff      x4
E----------------|
B----------------|
G-5-5-----5------|
D-5-5-3-3-5--5-5-|
A-3-3-3-3-3--5-5-|
E-----1-1----3-3-|

Verse                                                 x3
E---------------------------------|---------------------|
B---------------------------------|---------------------|
G---------------------------------|---------------5-----|
D-5-5-5-5-5-5-5-5-3-3-3-3-3-3-3-3-|-5-5-5-5-5-5---5---5-|
A-5-5-5-5-5-5-5-5-3-3-3-3-3-3-3-3-|-5-5-5-5-5-5---3---5-|
E-3-3-3-3-3-3-3-3-1-1-1-1-1-1-1-1-|-3-3-3-3-3-3-------3-|

Main Riff      x2
E----------------|
B----------------|
G-5-5-----5------|
D-5-5-3-3-5--5-5-|
A-3-3-3-3-3--5-5-|
E-----1-1----3-3-|

Bridge ("You think that i'm real cute...")
E-----------------|-----------------|-----------------|-----------------|
B-----------------|-----------------|-----------------|-----------------|
G-----5-5---------|-----5-5---------|-----5-5---------|-----5-5---------|
D-3-3-5-5-5---5-5-|-3-3-5-5-5---5-5-|-3-3-5-5-5---5-5-|-3-3-5-5-5---5-5-|
A-3-3-3-3-5---5-5-|-3-3-3-3-5---5-5-|-3-3-3-3-5---5-5-|-3-3-3-3-5---5-5-|
E-1-1-----3---3-3-|-1-1-----3---3-3-|-1-1-----3---3-3-|-1-1-----3---3-3-|

Main Riff      x8
E----------------|
B----------------|
G-5-5-----5------|
D-5-5-3-3-5--5-5-|
A-3-3-3-3-3--5-5-|
E-----1-1----3-3-|

Tap to rate this tab
 
# A B C D E F G H I J K L M N O P Q R S T U V W X Y Z