Song name
# A B C D E F G H I J K L M N O P Q R S T U V W X Y Z

Ramones - Rock N Roll Radio tab

Tabbed by: Mike Warfield

This is the "sax" run heard throughout the song.
Play fast.


E----------------------------------------------------|
B----------------------------------------------------|
G---------------------------------------0--0--2--0---|
D---------------0--0--2--0--------2--2---------------|
A---------2--2--------------3--3---------------------|
E---3--3---------------------------------------------|

E----------------------------|
B----------------------------|
G---------------2--2--4--2---|
D---0--0--4--4---------------|
A----------------------------|
E----------------------------|

E----------------------------|
B----------------------------|
G---0--0---------------------|
D---------2--2--0--0---------|
A---------------------2------|
E------------------------5---|

E----------------------------------------------------|
B----------------------------------------------------|
G---------------------------------------0--0--2--0---|
D---------------0--0--2--0--------2--2---------------|
A---------2--2--------------3--3---------------------|
E---3--3---------------------------------------------|

E----------------------------|
B----------------------------|
G---------------2--2--4--2---|
D---0--0--4--4---------------|
A----------------------------|
E----------------------------|

E----------------------------|
B----------------------------|
G---0--0---------------------|
D---------2--2--0--0---------|
A---------------------2------|
E------------------------5---|
Tap to rate this tab
 
# A B C D E F G H I J K L M N O P Q R S T U V W X Y Z