Ramones - You Sound Like Youre Sick tab

-------------------------------------------------------------------------------
			     YOU SOUND LIKE YOU'RE SICK  - Ramones
-------------------------------------------------------------------------------
Tabbed by: my ass.
Email: no.

Tuning: Standard E

Intro RIff:

e|---------------------------------------------------------------|
B|---------------------------------------------------------------|
G|--6--6--6-6----------------------------------------------------|
D|--6--6--6-6--6--6-6-6--6-6-6--4--4--4-4--6--6-6-6--6-6-6-------| x2
A|--4--4--4-4--6--6-6-6--6-6-6--4--4--4-4--6--6-6-6--6-6-6-------|
E|-------------4--4-4-4--4-4-4--2--2--2-2--4--4-4-4--4-4-4-------|

Verse:
Well I can't understand...
e|---------------------------------------------------------------|
B|---------------------------------------------------------------|
G|--6--6--6-6----------------------------------------------------|
D|--6--6--6-6--6--6-6-6--6-6-6--4--4--4-4--6--6-6-6--6-6-6-------| x2
A|--4--4--4-4--6--6-6-6--6-6-6--4--4--4-4--6--6-6-6--6-6-6-------|
E|-------------4--4-4-4--4-4-4--2--2--2-2--4--4-4-4--4-4-4-------|

Chorus:
Here's your new home...
e|---------------------------------------|
B|---------------------------------------|
G|---------------------------------------|
D|--4--4-4-4-4-4-4--6--6-6-6-6-6-6-------| x2
A|--4--4-4-4-4-4-4--6--6-6-6-6-6-6-------|
E|--2--2-2-2-2-2-2--4--4-4-4-4-4-4-------|

In the institution...
e|-----------------------------|
B|-----------------------------|
G|-----------------------------|
D|--6--6--6--6--6--6--6--6-----| i'm not sure for this part, play as many times needed.
A|--6--6--6--6--6--6--6--6-----|
E|--4--4--4--4--4--4--4--4-----|

Play all that all over again.
THEN TO:
Bridge:
You sound like you're sick...
e|-----------------------------------------------------------------------|
B|-----------------------------------------------------------------------|
G|--6--6-6-6-6-6-6-6-6-6-6-6-6-6-6---------------------------------------|
D|--6--6-6-6-6-6-6-6-6-6-6-6-6-6-6--6--6-6-6-6-6-6-6-6-6-6-6-6-6-6-------| x3
A|--4--4-4-4-4-4-4-4-4-4-4-4-4-4-4--6--6-6-6-6-6-6-6-6-6-6-6-6-6-6-------|
E|----------------------------------4--4-4-4-4-4-4-4-4-4-4-4-4-4-4-------|

e|---------------------------------------|
B|---------------------------------------|
G|---------------------------------------|
D|--4--4-4-4-4-4-4--6--6-6-6-6-6-6-------| x2
A|--4--4-4-4-4-4-4--6--6-6-6-6-6-6-------|
E|--2--2-2-2-2-2-2--4--4-4-4-4-4-4-------|

AND THEN PLAY ALL THAT OVER AGAIN THREE TIMES.
But third time around play the Bridge 6 times and skip the little build thing and play:

e|------------------------------------------------|
B|------------------------------------------------|
G|--6--6-----------------------------------4------|
D|--6--6--4--4--5/6-6--6-6-5/6-6--6-6------4------|
A|--4--4--4--4--5/6-6--6-6-5/6-6--6-6--x2--2------|
E|--------2--2--3/4-4--4-4-3/4-4--4-4-------------|


************************************

| /   slide up
| \   slide down
| h   hammer-on
| p   pull-off
| ~   vibrato
| +   harmonic
| x   Mute note
| b   Bend
| pb  Pre-bend
| br  Bend release
| pbr Pre-bend release
| brb Bend release bend

************************************
Tap to rate this tab
 
# A B C D E F G H I J K L M N O P Q R S T U V W X Y Z