Song name
# A B C D E F G H I J K L M N O P Q R S T U V W X Y Z

Ramones - Loudmouth tab

-----------------------------------------------------------------------------
                             Loudmouth  The Ramones
-----------------------------------------------------------------------------
Tabbed by: Jogy
Email:Jogy @ g m x.com

Tuning: standard

Typical Ramones song with barre chords and played only downstroke.
Should be correct if not please leave comments.


4x
e|--------------------------------------------------------------------------|
B|--------------------------------------------------------------------------|
G|--6-6-6-6-6-6-6-6---9-9---8-8-8-8-----------------------------------------|
D|--7-7-7-7-7-7-7-7---9-9---9-9-9-9-----------------------------------------|
A|--7-7-7-7-7-7-7-7---7-7---9-9-9-9-----------------------------------------|
E|--5-5-5-5-5-5-5-5---------7-7-7-7-----------------------------------------|

2x					2x
e|--------------------------------------------------------------------------|
B|--------------------------------------------------------------------------|
G|--4-6-9-9-9-9-9-9-9-9----------4-6-7-7-7-7-7-7-7-7------------------------|
D|--5-7-9-9-9-9-9-9-9-9----------5-7-7-7-7-7-7-7-7-7------------------------|
A|--5-7-7-7-7-7-7-7-7-7----------5-7-5-5-5-5-5-5-5-5------------------------|
E|--3-5--------------------------3-5----------------------------------------|

Refrain
4x
e|-------------------------------------------------------------------------|
B|-------------------------------------------------------------------------|
G|-8-8-8--4-4-4--6-6-------------------------------------------------------|
D|-9-9-9--5-5-5--7-7--2-2-2------------------------------------------------|
A|-9-9-9--5-5-5--7-7--2-2-2------------------------------------------------|
E|-7-7-7--3-3-3--5-5--0-0-0------------------------------------------------|

End
8x
e|--------------------------------------------------------------------------|
B|--------------------------------------------------------------------------|
G|-9-8---8-8-8----7-6---6-6-6----5-4---4-4-4--------------------------------|
D|-9-9---9-9-9----7-7---7-7-7----5-5---5-5-5--------------------------------|
A|-7-9---9-9-9----5-7---7-7-7----3-5---5-5-5--------------------------------|
E|---7---7-7-7------5---5-5-5------3---3-3-3--------------------------------|

e|--------------------------------------------------------------------------|
B|--------------------------------------------------------------------------|
G|-8-8-8-8-8-8-8-8----------------------------------------------------------|
D|-9-9-9-9-9-9-9-9----------------------------------------------------------|
A|-9-9-9-9-9-9-9-9----------------------------------------------------------|
E|-7-7-7-7-7-7-7-7----------------------------------------------------------|
Tap to rate this tab
 
# A B C D E F G H I J K L M N O P Q R S T U V W X Y Z