Ramones - Time Has Come Today tab

 Intro
e|------2h3p2-----|------2h3p2-0---|------2h3-2-0-2-|------2h3p2-----|
B|----------------|----------------|----------------|----------------|
G|-7--------------|-5--------------|----------------|-7--------------| 
D|-7--------------|-5--------------|-5--------------|-7--------------|
A|-5--------------|-3--------------|-5--------------|-5--------------|
E|----------------|----------------|-3--------------|----------------|
Main Riff                                   
e|---------------------------------|
B|---------------------------------|
G|-7-7-7-7-5-5-5-5---------7-7-7-7-|
D|-7-7-7-7-5-5-5-5-5-5-5-5-7-7-7-7-|
A|-5-5-5-5-3-3-3-3-5-5-5-5-5-5-5-5-|
E|-----------------3-3-3-3---------|
2:54 
e|-----------------------------------------------------------------|
B|-----------------------------------------------------------------|
G|-7-7-7-7-7-7-7-7-7-7-7-7-7-7-7-7-7-7-7-7-7-7-7-7-7-7-7-7-7-7-7-7-| 
D|-7-7-7-7-7-7-7-7-7-7-7-7-7-7-7-7-7-7-7-7-7-7-7-7-7-7-7-7-7-7-7-7-|
A|-5-5-5-5-5-5-5-5-5-5-5-5-5-5-5-5-5-5-5-5-5-5-5-5-5-5-5-5-5-5-5-5-|
E|-----------------------------------------------------------------|
Enjoy & Rate
Tap to rate this tab
 
# A B C D E F G H I J K L M N O P Q R S T U V W X Y Z