Song name
# A B C D E F G H I J K L M N O P Q R S T U V W X Y Z

Ramones - I Wanna Be Sedated Acoustic tab

-------------------------------------------------------------------------------
			     I WANNA BE SEDATED - The Ramones
-------------------------------------------------------------------------------
Tabbed by: Chris Richter
Email: ChrisRGuitar@gmail.com

This is a version of the Ramones classic "I Wanna Be Sedated" I arrranged
 for classical guitar.  You could play it on electric or acoustic guitar as
 well, though.  If you want to hear what it sounds like, you can go to:
 http://www.youtube.com/watch?v=LmMoKZQbv1A

Tuning: Standard

E|-------------------------|------------------------|-0--0--0--0--0--0--0--0-|
B|o------------------------|------------------------|------------------------|
G|-------------------------|------------------------|------------------------|
D|-------------------------|------------------------|------------------------|
A|o-0-----0-----0-----0----|-0-----0-----0-----0----|-0-----0-----0-----0----|
E|-------------------------|------------------------|------------------------|

E|-0--0--2--0-------------|------------------------|------------------------|
B|----------------3--2----|----3--2--2--0--------0-|----2-------------------|
G|------------------------|-------------------2----|------------------------|
D|------------------------|-0-----0-----0-----0----|------------------------|
A|-0-----0-----0-----0----|------------------------|-0-----0-----0-----0----|
E|------------------------|------------------------|------------------------|

E|------------------------|------------------------|------------------------|
B|-2--2--0--2-----2----2--|----0--2-----0----------|----3--2--2--0--------0-|
G|------------------------|-------------------2----|-------------------2----|
D|------------------------|------------------------|-0-----0-----0-----0----|
A|-0-----0-----0-----0----|-0-----0-----0-----0----|------------------------|
E|------------------------|------------------------|------------------------|

E|----------------------0-|-0--0--0--0--0--0-----0-|-0--0--0--2--0--------0-|
B|----2-------------------|------------------------|------------------------|
G|------------------------|------------------------|------------------------|
D|------------------------|------------------------|------------------------|
A|-0-----0-----0-----0----|------------------------|-0-----0-----0-----0----|
E|------------------------|-0-----0-----0-----0----|------------------------|

E|-0--0--0--0--0--0-------|-0--0--0--2--0--------0-|-0--0--0--0--0--0-----0-|
B|----------------------2-|------------------------|------------------------|
G|------------------------|------------------------|------------------------|
D|------------------------|------------------------|------------------------|
A|------------------------|-0-----0-----0-----0----|------------------------|
E|-0-----0-----0-----0----|------------------------|-0-----0-----0-----0----|

E|-0--0--0--2--0----------|------------------------|------------------------|
B|------------------------|-3-----------0----------|------------------------|
G|-------------------2----|-2-----------0----------|-1----------------------|
D|------------------------|-0----------------------|-2----------------------|
A|-0-----0-----0-----0----|-------4-----2-----0----|-2----------------------|
E|------------------------|------------------------|-0-----------0--0-------|

E|------------------------|-2--2--2--2--2--2--2----|-2--2--4--2-------------|
B|-----------------------o|------------------------|----------------5--4----|
G|------------------------|------------------------|------------------------|
D|------------------------|------------------------|------------------------|
A|-----------------------o|-2-----2-----2-----2----|-2-----2-----2-----2----|
E|-0-----0-----0-----0----|------------------------|------------------------|

E|------------------------|------------------------|------------------------|
B|----5--4--4--2--------2-|----4-------------------|-4--4--2--4-----4-----4-|
G|-------------------4----|------------------------|------------------------|
D|-2-----2-----2-----2----|------------------------|------------------------|
A|------------------------|-2-----2-----2-----2----|-2-----2-----2-----2----|
E|------------------------|------------------------|------------------------|

E|------------------------|------------------------|----------------------2-|
B|----2--4-----2----------|----5--4--4--2--------2-|----4-------------------|
G|-------------------4----|-------------------4----|------------------------|
D|------------------------|-2-----2-----2-----2----|------------------------|
A|-2-----2-----2-----2----|------------------------|-2-----2-----2-----2----|
E|------------------------|------------------------|------------------------|

E|-2--2--2--2--2--2-----2-|-2--2--2--4--2--------2-|-2--2--2--2--2--2-------|
B|------------------------|------------------------|----------------------4-|
G|------------------------|------------------------|------------------------|
D|------------------------|------------------------|------------------------|
A|------------------------|-2-----2-----2-----2----|------------------------|
E|-2-----2-----2-----2----|------------------------|-2-----2-----2-----2----|

E|-2--2--2--4--2--------2-|-2--2--2--2--2--2-----2-|-2--2--2--4--2----------|
B|------------------------|------------------------|------------------------|
G|------------------------|------------------------|-------------------4----|
D|------------------------|------------------------|------------------------|
A|-2-----2-----2-----2----|------------------------|-2-----2-----2-----2----|
E|------------------------|-2-----2-----2-----2----|------------------------|

E|-0----------------------|------------------------|------------------------|
B|-0-----------2----------|------------------------|------------------------|
G|-------------2----------|-3----------------------|------------------------|
D|-2-----1----------------|-4----------------------|------------------------|
A|-------------4-----2----|-4----------------------|------------------------|
E|------------------------|-2-----------2--2-------|-2-----2-----2-----0----|

E|------------------------|------------------------|----2--2--2--2----------|
B|------------------------|-5-----5-----5--5-------|-------------------2--2-|
G|-4-----4-----4--4-----4-|------------------------|------------------------|
D|------------------------|-2-----2-----2-----2----|------------------------|
A|-2-----2-----2-----2----|------------------------|------------------------|
E|------------------------|------------------------|-2-----2-----2-----2----|

E|------------------------|------------------------|------------------------|
B|----4-------------------|------------------------|-5-----5-----5--5-------|
G|------------------------|-4-----4-----4--4-----4-|------------------------|
D|------------------------|------------------------|-2-----2-----2-----2----|
A|-2-----2-----2-----2----|-2-----2-----2-----2----|------------------------|
E|------------------------|------------------------|------------------------|

E|----2--2--2--2----------|------------------------|
B|-------------------2--2-|----4-------------------|
G|------------------------|------------------------|
D|------------------------|------------------------|
A|------------------------|-2-----2-----2----------|
E|-2-----2-----2-----2----|------------------------|


************************************

| /   slide up
| \   slide down
| h   hammer-on
| p   pull-off
| ~   vibrato
| +   harmonic
| x   Mute note
| b   Bend
| pb  Pre-bend
| br  Bend release
| pbr Pre-bend release
| brb Bend release bend

************************************
Tap to rate this tab
 
# A B C D E F G H I J K L M N O P Q R S T U V W X Y Z