Song name
# A B C D E F G H I J K L M N O P Q R S T U V W X Y Z

Ramones - Lifes A Gas tab

Ramones -- Life's A Gas -- Adios Amigos -- 1995

INTRO

WOOOO YEAHH...

E|------------------------------------------------------------------------|   X2
B|------------------------------------------------------------------------|
G|------------------------------------------------------------------------|
D|-12-12-12-12-11-11-11-11-9-9-9-9-7-7-7-7-5-5-5-5-5-5-5-7-7-7-7-7-7-7----|
A|-10-10-10-10-9--9--9--9--7-7-7-7-5-5-5-5-3-3-3-3-3-3-3-5-5-5-5-5-5-5----|
E|------------------------------------------------------------------------|

LA LA LA LA LA LA...

E|-------------------------------|  X2
B|-------------------------------|
G|-------------------------------|
D|-5-5-5-5-5-5-5-5-7-7-7-7-7-7-7-|
A|-3-3-3-3-3-3-3-5-5-5-5-5-5-5-5-|
E|-------------------------------|

LIFE'S A GAS...

E|-------------------------------|  X2
B|-------------------------------|
G|-------------------------------|
D|-5-5-5-5-5-5-5-2-2-2-2-2-2-2---|
A|-3-3-3-3-3-3-3-2-2-2-2-2-2-2---|
E|-3-3-3-3-3-3-3-0-0-0-0-0-0-0---|

LIFE'S A GAS, A GAS OH YEAH....

E|---------------------------------------------------------------------|
B|---------------------------------------------------------------------|
G|---------------------------------------------------------------------|
D|-5-5-5-5-4-4-4-4-7-7-7-7-5-5-5-5-7-7-7-7-7-7-7-7-7-7-7-7-7-7-7-7-7-7-|
A|-3-3-3-3-2-2-2-2-7-7-7-7-5-5-5-5-5-5-5-5-5-5-5-5-5-5-5-5-5-5-5-5-5-5-|
E|-----------------5-5-5-5-3-3-3-3-------------------------------------|

SO DONT BE...

E|------------------------------------------------------------------------|
B|------------------------------------------------------------------------|
G|------------------------------------------------------------------------|
D|-5-5-5-5-5-5-5-7-7-7-7-7-7-7-2-2-2-2-2-2-2-5-5-5-5-5-5-5-5-5-5-5-5-5-5--|
A|-3-3-3-3-3-3-3-5-5-5-5-5-5-5-2-2-2-2-2-2-2-5-5-5-5-5-5-5-3-3-3-3-3-3-3--|
E|-----------------------------0-0-0-0-0-0-0-3-3-3-3-3-3-3----------------|

E|--------------------------------------------|
B|--------------------------------------------|
G|--------------------------------------------|
D|-5-5-5-5-5-5-5-7-7-7-7-7-7-7-7-7-7-7-7-7-7--|
A|-3-3-3-3-3-3-3-5-5-5-5-5-5-5-5-5-5-5-5-5-5--|
E|--------------------------------------------|

LIFE'S A GAS...

E|-------------------------------|  X2
B|-------------------------------|
G|-------------------------------|
D|-5-5-5-5-5-5-5-2-2-2-2-2-2-2---|
A|-3-3-3-3-3-3-3-2-2-2-2-2-2-2---|
E|-3-3-3-3-3-3-3-0-0-0-0-0-0-0---|

LIFE'S A GAS, A GAS OH YEAH....

E|---------------------------------------------------------------------|
B|---------------------------------------------------------------------|
G|---------------------------------------------------------------------|
D|-5-5-5-5-4-4-4-4-7-7-7-7-5-5-5-5-7-7-7-7-7-7-7-7-7-7-7-7-7-7-7-7-7-7-|
A|-3-3-3-3-2-2-2-2-7-7-7-7-5-5-5-5-5-5-5-5-5-5-5-5-5-5-5-5-5-5-5-5-5-5-|
E|-----------------5-5-5-5-3-3-3-3-------------------------------------|

LIFE'S A GAS...

E|-------------------------------|  X2
B|-------------------------------|
G|-------------------------------|
D|-5-5-5-5-5-5-5-2-2-2-2-2-2-2---|
A|-3-3-3-3-3-3-3-2-2-2-2-2-2-2---|
E|-3-3-3-3-3-3-3-0-0-0-0-0-0-0---|

LIFE'S A GAS, A GAS OH YEAH....

E|---------------------------------------------------------------------|
B|---------------------------------------------------------------------|
G|---------------------------------------------------------------------|
D|-5-5-5-5-4-4-4-4-7-7-7-7-5-5-5-5-7-7-7-7-7-7-7-7-7-7-7-7-7-7-7-7-7-7-|
A|-3-3-3-3-2-2-2-2-7-7-7-7-5-5-5-5-5-5-5-5-5-5-5-5-5-5-5-5-5-5-5-5-5-5-|
E|-----------------5-5-5-5-3-3-3-3-------------------------------------|

SO DONT BE...

E|------------------------------------------------------------------------|
B|------------------------------------------------------------------------|
G|------------------------------------------------------------------------|
D|-5-5-5-5-5-5-5-7-7-7-7-7-7-7-2-2-2-2-2-2-2-5-5-5-5-5-5-5-5-5-5-5-5-5-5--|
A|-3-3-3-3-3-3-3-5-5-5-5-5-5-5-2-2-2-2-2-2-2-5-5-5-5-5-5-5-3-3-3-3-3-3-3--|
E|-----------------------------0-0-0-0-0-0-0-3-3-3-3-3-3-3----------------|

E|--------------------------------------------|
B|--------------------------------------------|
G|--------------------------------------------|
D|-5-5-5-5-5-5-5-7-7-7-7-7-7-7-7-7-7-7-7-7-7--|
A|-3-3-3-3-3-3-3-5-5-5-5-5-5-5-5-5-5-5-5-5-5--|
E|--------------------------------------------|

OH, OH, OH, OH, OH

E|-----------------------|  X2
B|-----------------------|
G|-----------------------|
D|-5-5-5---5---7-7-7-7---|
A|-5-5-5-5---5-5-5-5-5---|
E|-3-3-3-----------------|

E|---------------------------------------------------------|
B|---------------------------------------------------------|
G|---------------------------------------------------------|
D|-10-10-10-10-9-9-9-9-7-7-7-7-5-5-5-5-4/5-4/5-4/5-4/5-4/5-|
A|-10-10-10-10-9-9-9-9-7-7-7-7-5-5-5-5-2/3-2/3-2/3-2/3-2/4-|
E|-8--8--8--8--7-7-7-7-5-5-5-5-3-3-3-3---------------------|

E|-----------------------|  X2
B|-----------------------|
G|-----------------------|
D|-5-5-5---5---7-7-7-7---|
A|-5-5-5-5---5-5-5-5-5---|
E|-3-3-3-----------------|

E|---------------------------------------------------------|
B|---------------------------------------------------------|
G|---------------------------------------------------------|
D|-10-10-10-10-9-9-9-9-7-7-7-7-5-5-5-5-4-5-4-5-4-5-4-5-4-5-|
A|-10-10-10-10-9-9-9-9-7-7-7-7-5-5-5-5-2-3-2-3-2-3-2-3-2-4-|
E|-8--8--8--8--7-7-7-7-5-5-5-5-3-3-3-3---------------------|

SO DONT BE...

E|------------------------------------------------------------------------|
B|------------------------------------------------------------------------|
G|------------------------------------------------------------------------|
D|-5-5-5-5-5-5-5-7-7-7-7-7-7-7-2-2-2-2-2-2-2-5-5-5-5-5-5-5-5-5-5-5-5-5-5--|
A|-3-3-3-3-3-3-3-5-5-5-5-5-5-5-2-2-2-2-2-2-2-5-5-5-5-5-5-5-3-3-3-3-3-3-3--|
E|-----------------------------0-0-0-0-0-0-0-3-3-3-3-3-3-3----------------|

E|--------------------------------------------|
B|--------------------------------------------|
G|--------------------------------------------|
D|-5-5-5-5-5-5-5-7-7-7-7-7-7-7-7-7-7-7-7-7-7--|
A|-3-3-3-3-3-3-3-5-5-5-5-5-5-5-5-5-5-5-5-5-5--|
E|--------------------------------------------|

WOOOO YEAHH...

E|---------------------------------------------------------------------|
B|---------------------------------------------------------------------|
G|---------------------------------------------------------------------|
D|-12-12-12-12-11-11-11-11-9-9-9-9-7-7-7-7-5-5-5-5-5-5-5-7-7-7-7-7-7-7-|
A|-10-10-10-10-9--9--9--9--7-7-7-7-5-5-5-5-3-3-3-3-3-3-3-5-5-5-5-5-5-5-|
E|---------------------------------------------------------------------|

DO THIS UNTIL THE END.


 It's a very easy song, just play it with de song while you watch the tab.

 I wrote it based on the woodyamsterdam cover on youtube, so thanks woody

 Hope you like it, Please rate!

                                             alemaster33.
Tap to rate this tab
# A B C D E F G H I J K L M N O P Q R S T U V W X Y Z