Song name
# A B C D E F G H I J K L M N O P Q R S T U V W X Y Z

Ramones - I Wanna Be Well tab

The Ramones
I Wanna Be Well

From The Album: It's Alive


e|--------------------------------------|
B|--------------------------------------|
G|--------------------------------------|
D|--7-7-7-7-7-7-7-7-7-7-7-7-7-7-7-7-----|
A|--7-7-7-7-7-7-7-7-7-7-7-7-7-7-7-7-----|
E|--5-5-5-5-5-5-5-5-5-5-5-5-5-5-5-5-----|


Riff 1
e|--------------------------------------|
B|--------------------------------------|
G|-7--7-7-7-7-7-7-----------------------|
D|-7--7-7-7-7-7-7--5--5-5--7--7-7-------|
A|-5--5-5-5-5-5-5--5--5-5--7--7-7-------|
E|-----------------3--3-3--5--5-5-------|


Chorus 1
e|--------------------------------------|
B|--------------------------------------|
G|--------------------------------------|
D|--7-7-7-7-7-7-7-7-7-7-7-7-7-7-7-7-----|
A|--7-7-7-7-7-7-7-7-7-7-7-7-7-7-7-7-----|
E|--5-5-5-5-5-5-5-5-5-5-5-5-5-5-5-5-----|


Riff 2
e|------------------------------------------------------------------|
B|------------------------------------------------------------------|
G|---------------------------------7--7-7-7-7-7-7-7-7-7-7-7-7-7-7---|
D|-5--5-5-5-5-5-5--7--7-7-7-7-7-7--7--7-7-7-7-7-7-7-7-7-7-7-7-7-7---|
A|-5--5-5-5-5-5-5--7--5-5-5-5-5-5--5--5-5-5-5-5-5-5-5-5-5-5-5-5-5---|
E|-3--3-3-3-3-3-3--5--5-5-5-5-5-5-----------------------------------|


Chorus 2
e|----------------------------------------------------------------------------|
B|----------------------------------------------------------------------------|
G|----------------------------------------------------------------------------|
D|-5--5-5-5-5-5-5--7--7-7-7-7-7-7--10--10-10-10-10-10-10-10-10-10-10-10-10-10-|
A|-5--5-5-5-5-5-5--7--5-5-5-5-5-5--10--10-10-10-10-10-10-10-10-10-10-10-10-10-|
E|-3--3-3-3-3-3-3--5--5-5-5-5-5-5--8---8--8--8--8--8--8--8--8--8--8--8--8--8--|

e|-----------------------------------------|
B|-----------------------------------------|
G|-----------------------------------------|
D|-10-10-----------------------------------|
A|-10-10-----------------------------------|
E|-8--8------------------------------------|


Repeat The First Riff                    (5x)
e|--------------------------------------|
B|--------------------------------------|
G|-7--7-7-7-7-7-7-----------------------|
D|-7--7-7-7-7-7-7--5--5-5--7--7-7-------|
A|-5--5-5-5-5-5-5--5--5-5--7--7-7-------|
E|-----------------3--3-3--5--5-5-------|
Tap to rate this tab
 
# A B C D E F G H I J K L M N O P Q R S T U V W X Y Z