Song name
# A B C D E F G H I J K L M N O P Q R S T U V W X Y Z

Ramones - Palisades Park tab

Help us improve GuitareTab! Take a short survey!
any shit  DESTINYPUNK@hotmail.com

pAlIsAdEs PaRk
                      /-play at the same time
intro

/6------------------------------------------------
/5------------------------------------------------
/4------------------------------------------------
/3--12-11-10-9-8-7-6/7/6/7--9-8-7-6-5-4-3/4/3/4---
/2------------------------------------------------
/1------------------------------------------------
/
/6--3--3--3--3--3--3--3--3------------------------
/5--5--5--5--5--5--5--5--5---7--7--7--7--7--7--7--
/4--5--5--5--5--5--5--5--5---9--9--9--9--9--9--9--
/3---------------------------9--9--9--9--9--9--9--
/2------------------------------------------------
/1------------------------------------------------

verse

6--3-3-3-3-3-3-3------------------------------------------------
5--5-5-5-5-5-5-5--7-7-7-7-7-7-7--3-3-3-3-3-3-3--5-5-5-5-5-5-5---
4--5-5-5-5-5-5-5--9-9-9-9-9-9-9--5-5-5-5-5-5-5--7-7-7-7-7-7-7---
3-----------------9-9-9-9-9-9-9--5-5-5-5-5-5-5--7-7-7-7-7-7-7---
2---------------------------------------------------------------
1---------------------------------------------------------------

pre chorus

6-----------------------------------------------
5--3-3-3-3-3--7-7-7-7-7--3-3-3-3-3--5-5-5-5-5---
4--5-5-5-5-5--9-9-9-9-9--5-5-5-5-5--7-7-7-7-7---
3--5-5-5-5-5--9-9-9-9-9--5-5-5-5-5--7-7-7-7-7---
2-----------------------------------------------
1-----------------------------------------------

then play another verse another pre chorus and then repeat the intro x2 and then
its a little part of the intro more and its like this.....

6----------------------------------------
5----------------------------------------
4----------------------------------------
3--5-5-5/7-7-7/12-12-12-12-12-12-12-12---
2----------------------------------------
1----------------------------------------

then repeat another verse another pre chorus another chorus another pre chorus
and the end of the song its the intro but play it x6
Related for Palisades Park tab