Guitaretab - guitar tabs
Song name
# A B C D E F G H I J K L M N O P Q R S T U V W X Y Z

Ramones - Now I Wanna Sniff Some Glue tab

TABBED BY ramones1314 
RIFF 1
e-----------------------
B-----------------------
G-----------------------
D-7-7-7-7-7--5-5-5-5-5-5
A-7-7-7-7-7--5-5-5-5-5-5
E-5-5-5-5-5--3-3-3-3-3-3
riff 2
e-----------
B-----------
G-----------
D-7--5--3--2
A-7--5--3--2
E-5--3--1--0
PAUSE
[ Tab from: http://www.guitaretab.com/r/ramones/33695.html ]
SOLO
e--------------------------
B--------------------------
G-------------------------0
D----------------------0h2-
A-2-2-2-2-2-2-2-2-2-2-2----
E-0-0-0-0-0-0-0-0-0-0-0----
RIFF 3
e--------------------------------------------------------
B--------------------------------------------------------
G--------------------------------------------------------
D-7-7-7-7-7-7-7-5-5-5-5-5-5-5-3-3-3-3-3-3-3-2-2-2-2-2-2-2
A-7-7-7-7-7-7-7-5-5-5-5-5-5-5-3-3-3-3-3-3-3-2-2-2-2-2-2-2
E-5-5-5-5-5-5-5-3-3-3-3-3-3-3-1-1-1-1-1-1-1-0-0-0-0-0-0-0
RIFF 4
e------------------------------------------------
B------------------------------------------------
G------------------------------------------------
D-7-7-7-7-7-7-7-5-5-5-5-5-5-5-5-3-3-3-3-3-3-3-3-2
A-7-7-7-7-7-7-7-5-5-5-5-5-5-5-5-3-3-3-3-3-3-3-3-2
E-5-5-5-5-5-5-5-3-3-3-3-3-3-3-3-1-1-1-1-1-1-1-1-0
ORDER
RIFF1 4X
RIFF2
PAUSE
RIFF2
SOLO  2X
RIFF2
RIFF1 8X
RIFF3 3X
RIFF4
Related for Now I Wanna Sniff Some Glue tab