Guitaretab - guitar tabs
Song name
# A B C D E F G H I J K L M N O P Q R S T U V W X Y Z

Ramones - Judy Is A Punk tab

Song: Judy is a Punk
Artist: The Ramones
Album: Loud, Fast, Ramones (Their Toughest Hits)
Release Date: September 15, 2002
Label: Rhin/Mesa/Bluemoon Records
	The Ramones Are:
Vaocals: Joey Ramone
Guitars: Johny Ramone
Bass Guitars: Dee Dee Ramone
Bass Guitars: C.J. Ramone
Drums: Tommy Ramone
Drums: Marky Ramone
Drums: Richie Ramone
	The Ramones Use:
(Unknown)

Standard Tunung
e|--
b|--
g|--
d|--
a|--
e|--

Tabbed By: Rhy Chermside
I'm constantly improving and correcting my tabs, so if you have any suggestions email me.
	BeatOnTheBrat91@hotmail.com



Verse:
e|----------------------------------|
b|----------------------------------|
g|--8-8-8-8-8-8-8-8-8-8-8-8-8-8-8-8-|
d|--8-8-8-8-8-8-8-8-8-8-8-8-8-8-8-8-|
a|--6-6-6-6-6-6-6-6-6-6-6-6-6-6-6-6-|
e|----------------------------------|

Verse:
e|-------------------------------------------------------------------|
b|-------------------------------------------------------------------|
g|--8--8--8--8--8--8--8--8--8--8--8--8--8--8--8--8--8--8--8--8--8--8-|
d|--8--8--8--8--8--8--8--8--8--8--8--8--8--8--8--8--8--8--8--8--8--8-|
a|--6--6--6--6--6--6--6--6--6--6--6--6--6--6--6--6--6--6--6--6--6--6-|
e|-------------------------------------------------------------------|
    Jackie is a punk,  Judy is a runt,  They both went down to Berlin

Verse:
e|----------------------------------|
b|----------------------------------|
g|----------------------------------|
d|--8-8-8-8-8-8-8-8-8-8-8-8-8-8-8-8-|
a|--8-8-8-8-8-8-8-8-8-8-8-8-8-8-8-8-|
e|--6-6-6-6-6-6-6-6-6-6-6-6-6-6-6-6-|
    Joined the Ice Capades, Yeah





Chorus:
e|-----------------------------------|
b|-----------------------------------|
g|-----------------------------------|
d|--6-6-6-6-6-6-6-6--8-8-8-8-8-8-8-8-|
a|--6-6-6-6-6-6-6-6--8-8-8-8-8-8-8-8-|
e|--4-4-4-4-4-4-4-4--6-6-6-6-6-6-6-6-|
    And Oh I don't know why

Chorus:
e|-----------------------------------|
b|-----------------------------------|
g|-----------------------------------|
d|--6-6-6-6-6-6-6-6--8-8-8-8-8-8-8-8-|
a|--6-6-6-6-6-6-6-6--8-8-8-8-8-8-8-8-|
e|--4-4-4-4-4-4-4-4--6-6-6-6-6-6-6-6-|
    Oh I don't know why,      Perhaps 

Chorus:
e|-----------------------------------|
b|-----------------------------------|
g|--8-8-8-8-8-8-8-8------------------|
d|--8-8-8-8-8-8-8-8--8-8-8-8-8-8-8-8-|
a|--6-6-6-6-6-6-6-6--8-8-8-8-8-8-8-8-|
e|-------------------6-6-6-6-6-6-6-6-|
    They'll die,     Oh yeah

Chorus:
e|-----------------------------------|
b|-----------------------------------|
g|--8-8-8-8-8-8-8-8------------------|
d|--8-8-8-8-8-8-8-8--8-8-8-8-8-8-8-8-|
a|--6-6-6-6-6-6-6-6--8-8-8-8-8-8-8-8-|
e|-------------------6-6-6-6-6-6-6-6-|
Perhaps they'll die, Oh yeah

Chorus:
e|-----------------------------------|
b|-----------------------------------|
g|--8-8-8-8-8-8-8-8------------------|
d|--8-8-8-8-8-8-8-8--8-8-8-8-8-8-8-8-|
a|--6-6-6-6-6-6-6-6--8-8-8-8-8-8-8-8-|
e|-------------------6-6-6-6-6-6-6-6-|
Perhaps they'll die, Oh yeah

Chorus:
e|-----------------------------------|
b|-----------------------------------|
g|--8-8-8-8-8-8-8-8------------------|
d|--8-8-8-8-8-8-8-8--8-8-8-8-8-8-8-8-|
a|--6-6-6-6-6-6-6-6--8-8-8-8-8-8-8-8-|
e|-------------------6-6-6-6-6-6-6-6-|
Perhaps they'll die, Oh yeah






Verse:
e|----------------------------------------|
b|----------------------------------------|
g|----------------------------------------|
d|--8-8-8-8-8-8-8-8-8-8-8-8-8-8-8-8-8-8-8-|
a|--8-8-8-8-8-8-8-8-8-8-8-8-8-8-8-8-8-8-8-|
e|--6-6-6-6-6-6-6-6-6-6-6-6-6-6-6-6-6-6-6-|
         Second verse, same as the first

Verse:
e|-------------------------------------------------------------------|
b|-------------------------------------------------------------------|
g|--8--8--8--8--8--8--8--8--8--8--8--8--8--8--8--8--8--8--8--8--8--8-|
d|--8--8--8--8--8--8--8--8--8--8--8--8--8--8--8--8--8--8--8--8--8--8-|
a|--6--6--6--6--6--6--6--6--6--6--6--6--6--6--6--6--6--6--6--6--6--6-|
e|-------------------------------------------------------------------|
    Jackie is a punk,  Judy is a runt,  They both went down to Berlin

Verse:
e|----------------------------------|
b|----------------------------------|
g|----------------------------------|
d|--8-8-8-8-8-8-8-8-8-8-8-8-8-8-8-8-|
a|--8-8-8-8-8-8-8-8-8-8-8-8-8-8-8-8-|
e|--6-6-6-6-6-6-6-6-6-6-6-6-6-6-6-6-|
    Joined the Ice Capades, Yeah





Chorus:
e|-----------------------------------|
b|-----------------------------------|
g|-----------------------------------|
d|--6-6-6-6-6-6-6-6--8-8-8-8-8-8-8-8-|
a|--6-6-6-6-6-6-6-6--8-8-8-8-8-8-8-8-|
e|--4-4-4-4-4-4-4-4--6-6-6-6-6-6-6-6-|
    And Oh I don't know why
[ Tab from: http://www.guitaretab.com/r/ramones/33696.html ]
Chorus:
e|-----------------------------------|
b|-----------------------------------|
g|-----------------------------------|
d|--6-6-6-6-6-6-6-6--8-8-8-8-8-8-8-8-|
a|--6-6-6-6-6-6-6-6--8-8-8-8-8-8-8-8-|
e|--4-4-4-4-4-4-4-4--6-6-6-6-6-6-6-6-|
    Oh I don't know why,      Perhaps 

Chorus:
e|-----------------------------------|
b|-----------------------------------|
g|--8-8-8-8-8-8-8-8------------------|
d|--8-8-8-8-8-8-8-8--8-8-8-8-8-8-8-8-|
a|--6-6-6-6-6-6-6-6--8-8-8-8-8-8-8-8-|
e|-------------------6-6-6-6-6-6-6-6-|
    They'll die,     Oh yeah

Chorus:
e|-----------------------------------|
b|-----------------------------------|
g|--8-8-8-8-8-8-8-8------------------|
d|--8-8-8-8-8-8-8-8--8-8-8-8-8-8-8-8-|
a|--6-6-6-6-6-6-6-6--8-8-8-8-8-8-8-8-|
e|-------------------6-6-6-6-6-6-6-6-|
Perhaps they'll die, Oh yeah

Chorus:
e|-----------------------------------|
b|-----------------------------------|
g|--8-8-8-8-8-8-8-8------------------|
d|--8-8-8-8-8-8-8-8--8-8-8-8-8-8-8-8-|
a|--6-6-6-6-6-6-6-6--8-8-8-8-8-8-8-8-|
e|-------------------6-6-6-6-6-6-6-6-|
Perhaps they'll die, Oh yeah

Chorus:
e|-----------------------------------|
b|-----------------------------------|
g|--8-8-8-8-8-8-8-8------------------|
d|--8-8-8-8-8-8-8-8--8-8-8-8-8-8-8-8-|
a|--6-6-6-6-6-6-6-6--8-8-8-8-8-8-8-8-|
e|-------------------6-6-6-6-6-6-6-6-|
Perhaps they'll die, Oh yeah




Bridge
e|----------------------------------------------------------------------|
b|----------------------------------------------------------------------|
g|--8-8-8-8-8-8-8-8-------------------8-8-8-8-8-8-8-8-------------------|
d|--8-8-8-8-8-8-8-8--8-8-8-8-8-8-8-8--8-8-8-8-8-8-8-8--8-8-8-8-8-8-8-8--|
a|--6-6-6-6-6-6-6-6--8-8-8-8-8-8-8-8--6-6-6-6-6-6-6-6--8-8-8-8-8-8-8-8--|
e|-------------------6-6-6-6-6-6-6-6-------------------6-6-6-6-6-6-6-6--|
    Ooo______________Ooo____________  Ooo______________Ooo____________

Bridge
e|----------------------------------------------------------------------|
b|----------------------------------------------------------------------|
g|--8-8-8-8-8-8-8-8-------------------8-8-8-8-8-8-8-8-------------------|
d|--8-8-8-8-8-8-8-8--8-8-8-8-8-8-8-8--8-8-8-8-8-8-8-8--8-8-8-8-8-8-8-8--|
a|--6-6-6-6-6-6-6-6--8-8-8-8-8-8-8-8--6-6-6-6-6-6-6-6--8-8-8-8-8-8-8-8--|
e|-------------------6-6-6-6-6-6-6-6-------------------6-6-6-6-6-6-6-6--|
    Ooo______________Ooo____________  Ooo______________Ooo____________





Verse:
e|----------------------------------------|
b|----------------------------------------|
g|----------------------------------------|
d|--8-8-8-8-8-8-8-8-8-8-8-8-8-8-8-8-8-8-8-|
a|--8-8-8-8-8-8-8-8-8-8-8-8-8-8-8-8-8-8-8-|
e|--6-6-6-6-6-6-6-6-6-6-6-6-6-6-6-6-6-6-6-|
    Third verse, different from the first

Verse:
e|-------------------------------------------------------------------|
b|-------------------------------------------------------------------|
g|--8--8--8--8--8--8--8--8--8--8--8--8--8--8--8--8--8--8--8--8--8--8-|
d|--8--8--8--8--8--8--8--8--8--8--8--8--8--8--8--8--8--8--8--8--8--8-|
a|--6--6--6--6--6--6--6--6--6--6--6--6--6--6--6--6--6--6--6--6--6--6-|
e|-------------------------------------------------------------------|
    Jackie is a punk,  Judy is a runt,  They both ent down to Frisco

Verse:
e|----------------------------------|
b|----------------------------------|
g|----------------------------------|
d|--8-8-8-8-8-8-8-8-8-8-8-8-8-8-8-8-|
a|--8-8-8-8-8-8-8-8-8-8-8-8-8-8-8-8-|
e|--6-6-6-6-6-6-6-6-6-6-6-6-6-6-6-6-|
    Joined the S__L__A__, Yeah




Chorus:
e|-----------------------------------|
b|-----------------------------------|
g|-----------------------------------|
d|--6-6-6-6-6-6-6-6--8-8-8-8-8-8-8-8-|
a|--6-6-6-6-6-6-6-6--8-8-8-8-8-8-8-8-|
e|--4-4-4-4-4-4-4-4--6-6-6-6-6-6-6-6-|
    And Oh I don't know why

Chorus:
e|-----------------------------------|
b|-----------------------------------|
g|-----------------------------------|
d|--6-6-6-6-6-6-6-6--8-8-8-8-8-8-8-8-|
a|--6-6-6-6-6-6-6-6--8-8-8-8-8-8-8-8-|
e|--4-4-4-4-4-4-4-4--6-6-6-6-6-6-6-6-|
    Oh I don't know why,      Perhaps 

Chorus:
e|-----------------------------------|
b|-----------------------------------|
g|--8-8-8-8-8-8-8-8------------------|
d|--8-8-8-8-8-8-8-8--8-8-8-8-8-8-8-8-|
a|--6-6-6-6-6-6-6-6--8-8-8-8-8-8-8-8-|
e|-------------------6-6-6-6-6-6-6-6-|
    They'll die,     Oh yeah

Chorus:
e|-----------------------------------|
b|-----------------------------------|
g|--8-8-8-8-8-8-8-8------------------|
d|--8-8-8-8-8-8-8-8--8-8-8-8-8-8-8-8-|
a|--6-6-6-6-6-6-6-6--8-8-8-8-8-8-8-8-|
e|-------------------6-6-6-6-6-6-6-6-|
Perhaps they'll die, Oh yeah

Chorus:
e|-----------------------------------|
b|-----------------------------------|
g|--8-8-8-8-8-8-8-8------------------|
d|--8-8-8-8-8-8-8-8--8-8-8-8-8-8-8-8-|
a|--6-6-6-6-6-6-6-6--8-8-8-8-8-8-8-8-|
e|-------------------6-6-6-6-6-6-6-6-|
Perhaps they'll die, Oh yeah

Chorus:
e|-------------------------|
b|-------------------------|
g|--8-8-8-8-8-8-8-8--------|
d|--8-8-8-8-8-8-8-8--8~~~~-|
a|--6-6-6-6-6-6-6-6--8~~~~-|
e|-------------------6~~~~-|
Perhaps they'll die, Oh yeah
Related for Judy Is A Punk tab