Song name
# A B C D E F G H I J K L M N O P Q R S T U V W X Y Z

Ramones - Freak Of Nature tab

-------------------------------------------------------------------------------
			     FREAK OF NATURE - RAMONES
-------------------------------------------------------------------------------

Tabbed by: anavrin seixip


START
e|---------------------------------------------------------------------------|
B|---------------------------------------------------------------------------|
G|---------------------------------------------------------------------------|
D|-------------------------------------------------------5-3-----------------|
A|-5-5-5-5--5-5-5-5--5-5-5-5--5-5-5-5--5-5-5-5--5-5-5-5--3-1--5-5-5----------|
E|-3-3-3-3--3-3-3-3--3-3-3-3--3-3-3-3--3-3-3-3--3-3-3-3-------3-3-3----------|


PART 1
e|---------------------------------------------------------------------------|
B|---------------------------------------------------------------------------|
G|---------------------------------------------------------------------------|
D|-5-5-5--5-5-5-5--10-8------------------------------------------------------|
A|-3-3-3--3-3-3-3--8--6--8-8-8-----------------------------------------------|
E|-----------------------6-6-6-----------------------------------------------|


PART 2
e|---------------------------------------------------------------------------|
B|---------------------------------------------------------------------------|
G|---------------------------------------------------------------------------|
D|---------------3-3--5-5--3-------------------------------------------------|
A|-5-5--5-5-5-5--1-1--3-3--1-------------------------------------------------|
E|-3-3--3-3-3-3--------------------------------------------------------------|


PART 3
e|---------------------------------------------------------------------------|
B|---------------------------------------------------------------------------|
G|---------------------------------------------------------------------------|
D|---------------------------------------------------------------------------|
A|-5-5-5-5--5-5-5-5--5-5-5---------------------------------------------------|
E|-3-3-3-3--3-3-3-3--3-3-3---------------------------------------------------|


PART 4
e|---------------------------------------------------------------------------|
B|---------------------------------------------------------------------------|
G|---------------------------------------------------------------------------|
D|---------------------------------------------------------------------------|
A|-5-5-5-5--5-5-5-5--5-------------------------------------------------------|
E|-3-3-3-3--3-3-3-3--3-------------------------------------------------------|


ORDER OF SONG:
START (*2)
PART 1 (*4)
PART 2 (*4)
PART 1 (*4)
PART 2 (*4)
PART 3
PART 1 (*4)
PART 2 (*4)
PART 1 (*4)
PART 4
Tap to rate this tab
# A B C D E F G H I J K L M N O P Q R S T U V W X Y Z