Song name
# A B C D E F G H I J K L M N O P Q R S T U V W X Y Z

Ramones - Death Of Me tab

                       THE RAMONES
                       DEATH OF ME

===========================================================================
SOLO RECUERDEN QUE ESTO ''*'' SIGNIFICA HACER AL MUTE EN LAS CUERDAS QUE TOQUEN.



INTRO

E |-----------------------------------------------------------------|
B |-----------------------------------------------------------------|
G |--7-------10------7-------10------3-----10------5-----10---------|
D |--7x3-----10x2----7x3-----10x2----3x3---10x2----5x3---10x2-------|x2
A |--9-------12------9-------12------5-----12------7-----12---------|
E |-----------------------------------------------------------------|

LUEGO VA ESTO HACIENDO PALM MUTE:

E |-----------------------------------------------------------------|
B |-----------------------------------------------------------------|
G |--7----3----5----7----3---5----3---5----3----5-------------------|
D |--7x16-3x8--5x8--7x16-3x8-5x8--3x8-5x8--3x8--5x8-----------------|
A |--9----5----7----9----5---7----5---7----5----7-------------------|
E |--*----*----*----*----*---*----*---*----*----*-------------------|

luego va el intro de nuevo

E |-----------------------------------------------------------------|
B |-----------------------------------------------------------------|
G |--7-------10------7-------10------3-----10------5-----10---------|
D |--7x3-----10x2----7x3-----10x2----3x3---10x2----5x3---10x2-------|
A |--9-------12------9-------12------5-----12------7-----12---------|
E |-----------------------------------------------------------------|

aqui el palm mute de nuevo 

E |-----------------------------------------------------------------|
B |-----------------------------------------------------------------|
G |--7----3----5----7----3---5----3---5----3----5-----7-------------|
D |--7x16-3x8--5x8--7x16-3x8-5x8--3x8-5x8--3x8--5x8---7x16----------|
A |--9----5----7----9----5---7----5---7----5----7-----9-------------|
E |--*----*----*----*----*---*----*---*----*----*-------------------|


luego va el coro

E |-----------------------------------------------------------------|
B |-----------------------------------------------------------------|
G |-3----5----7----3----5----7----3----5----7-----------------------|
D |-3x4--5x4--7x8--3x4--5x4--7x8--3x4--5x4--7x8---------------------|
A |-5----5----9----5----7----9----5----7----9-----------------------|
E |-----------------------------------------------------------------|


E |-----------|
B |-----------|
G |-3----5----|
D |-3x4--5x4--|
A |-5----5----|
E |-----------|

nuevamente el intro

E |-----------------------------------------------------------------|
B |-----------------------------------------------------------------|
G |--7-------10------7-------10------3-----10------5-----10---------|
D |--7x3-----10x2----7x3-----10x2----3x3---10x2----5x3---10x2-------|x2
A |--9-------12------9-------12------5-----12------7-----12---------|
E |-----------------------------------------------------------------|

aqui el palm mute de nuevo 

E |-----------------------------------------------------------------|
B |-----------------------------------------------------------------|
G |--7----3----5----7----3---5----3---5----3----5-----7-------------|
D |--7x16-3x8--5x8--7x16-3x8-5x8--3x8-5x8--3x8--5x8---7x16----------|
A |--9----5----7----9----5---7----5---7----5----7-----9-------------|
E |--*----*----*----*----*---*----*---*----*----*-------------------|


luego va el coro

E |-----------------------------------------------------------------|
B |-----------------------------------------------------------------|
G |-3----5----7----3----5----7----3----5----7-----------------------|
D |-3x4--5x4--7x8--3x4--5x4--7x8--3x4--5x4--7x8---------------------|
A |-5----5----9----5----7----9----5----7----9-----------------------|
E |-----------------------------------------------------------------|


E |-----------|
B |-----------|
G |-3----5----|
D |-3x4--5x4--|
A |-5----5----|
E |-----------|

se repite lo mismo

E |-----------------------------------------------------------------|
B |-----------------------------------------------------------------|
G |-3----5----7----3----5----7----3----5----7-----------------------|
D |-3x4--5x4--7x8--3x4--5x4--7x8--3x4--5x4--7x8---------------------|
A |-5----5----9----5----7----9----5----7----9-----------------------|
E |-----------------------------------------------------------------|


E |-----------|
B |-----------|
G |-3----5----|
D |-3x4--5x4--|
A |-5----5----|
E |-----------|


para finalizar nuevamente el intro

E |-----------------------------------------------------------------|
B |-----------------------------------------------------------------|
G |--7-------10------7-------10------3-----10------5-----10----7----|
D |--7x3-----10x2----7x3-----10x2----3x3---10x2----5x3---10x2--7x3--|x2
A |--9-------12------9-------12------5-----12------7-----12----9----|
E |-----------------------------------------------------------------|


TAB COMPLETAMENTE HECHA POR ENRIQUE OSUNA
Tap to rate this tab
# A B C D E F G H I J K L M N O P Q R S T U V W X Y Z