Song name
# A B C D E F G H I J K L M N O P Q R S T U V W X Y Z

Ramones - Blitzkrieg Bop tab

Song: Blitzkrieg Bop
Artist: Ramones
Standard Tuning


Main Riff (Intro/Verse)
   A5               D5   E5
E|-----------------------------|
B|-----------------------------|
G|------------------7-7--9-9-9-|  x3
D|-7-7-7-7-7-7-7-7--7-7--9-9-9-|
A|-7-7-7-7-7-7-7-7--5-5--7-7-7-|
E|-5-5-5-5-5-5-5-5-------------|

   A5     D5     A5
E|-------------------------------|
B|-------------------------------|
G|--------7-7-7------------------|
D|-7-7-7--7-7-7--7-7-7-7-7-7-7-7-|
A|-7-7-7--5-5-5--7-7-7-7-7-7-7-7-|
E|-5-5-5---------5-5-5-5-5-5-5-5-|

Play Main Riff twice


Aey oh, let's go
Aey oh, let's go
Aey oh, let's go
Aey oh, let's go

   A5
E|---|
B|---|
G|---| x12
D|-7-|
A|-7-|
E|-5-|


Main Riff x2 (They're formin' in a straight line...)


Bridge (...Shoot 'em in the back now...)
   D5     A5    D5   A5
E|---------------------|
B|---------------------|
G|-7------------7-7----|
D|-7-x16--7-----7-7--7-|
A|-5------7-x8--5-5--7-|
E|--------5----------5-|

   D5     C5     D5   E5
E|----------------------|
B|----------------------|
G|-7------4-4-4--7-7--9-|
D|-7-x16--4-4-4--7-7--9-|
A|-5------2-2-2--5-5--7-|
E|----------------------|


Main Riff x2

Bridge x1

Main Riff x2


Ending
   A5
E|---|
B|---|
G|---|
D|-7-| x12
A|-7-|
E|-5-|
Tap to rate this tab
# A B C D E F G H I J K L M N O P Q R S T U V W X Y Z