Song name
# A B C D E F G H I J K L M N O P Q R S T U V W X Y Z

Ramones - Youre Gonna Kill That Girl tab

hey! this is my first tab so go easy on me.



intro\bridge
 e|--5----4-2------0--2------0-------------------------|
 B|--5----4-2------0--3------0-------------------------|
 G|--6----5-3------1--2------1-------------------------|
 D|--7----6-4------2--0------2-------------------------|
 A|--7----6-4------2---------2-------------------------|
 E|--5----4-2------0---------0-------------------------|


verse\chorus

  |----------------------------------------------------|
  |----------------------------------------------------|
  |---------7------9-----------------------------------|<---play each
  |-7---4---7------9-----------------------------------|  |  chord 8
  |-7---4---5------7-----------------------------------|  |  times
  |-5---2----------------------------------------------|  |
                                                          |
interlude                                                 | 
                                                          |
                                                          |
  |----------------------------------------------------|  |
  |----------------------------------------------------|  |
  |--7--------7--9-------------------------------------|  |
  |--7----7---7--9-------------------------------------| <-
  |--5----7---5--7-------------------------------------|
  |-------5--------------------------------------------|



  ending
 

  |-------------------------------|
  |-------------------------------|
  |------9------------------------|
  |------9--x7--------------------|
  |------7------------------------|
  |-------------------------------|




--intro
--verse x2
--interlude
--verse x2
--interlude
--intro
--verse x2
--interlude
--verse x2
--ending


Tap to rate this tab
# A B C D E F G H I J K L M N O P Q R S T U V W X Y Z