Song name
# A B C D E F G H I J K L M N O P Q R S T U V W X Y Z

Ramones - I Dont Wanna Walk Around With You tab

Ramones: I Don't Wanna Walk Around With You

these are the chords to the song
the rhythm is a tad of
but its easy to figure it out just by listening to the song

INTRO
E--------------|                                
B--------------|                            
G--------------|
D-22222-555-777|
A-22222-555-777|
E-00000-333-555|         

Part 1
E|----------|
B|----------|
G|--777777--|
D|7-777777-7|
A|7-555555-7|
E|5--------5|
                        
  Part2
E|-------------------------------|
B|-------------------------------|
G|-------------------------------|
D|5-5-5-5-5-5-5-5-7-7-7-7-7-7-7-7|
A|5-5-5-5-5-5-5-5-7-7-7-7-7-7-7-7|
E|3-3-3-3-3-3-3-3-5-5-5-5-5-5-5-5| X3

Part 3
E|-----------------|
B|-----------------|
G|1-1-1-1-1-1-1-1-1|
D|2-2-2-2-2-2-2-2-2|
A|2-2-2-2-2-2-2-2-2|
E|00-0-0-0-0-0-0-0| X1
Tap to rate this tab
# A B C D E F G H I J K L M N O P Q R S T U V W X Y Z