Song name
# A B C D E F G H I J K L M N O P Q R S T U V W X Y Z

Ramones - I Remember You tab

Ramones: I Remember You

Intro/chorus 
E|---------------------------------------| x4
B|---------------------------------------|
G|9----9-9--6----6--6-4----4𦴘𦴘4---|
D|9----9-9--6----6--6-4----4𦴘𦴘4---|
A|7----7-7--4----4--4-2----2-2-2-2-2-2---|
E|---------------------------------------|

Verse
E|-------------------------------------------------------------|
B|-------------------------------------------------------------|         x2
G|6--6-6-6-6-6-6--4--4-4-4-4-4-4--7--7-7-7-7-7-7--4-4-4-4-4-4-4|
D|6--6-6-6-6-6-6--4--4-4-4-4-4-4--7--7-7-7-7-7-7--4-4-4-4-4-4-4|
A|4--4-4-4-4-4-4--2--2-2-2-2-2-2--5--5-5-5-5-5-5--2-2-2-2-2-2-2|
E|-------------------------------------------------------------|

E|------------------------------------| x1
B|------------------------------------|
G|7---7-7-7-7-7-7---4---4-4-4-4-4-4---|
D|7---7-7-7-7-7-7---4---4-4-4-4-4-4---|
A|5---5-5-5-5-5-5---2---2-2-2-2-2-2---|
E|------------------------------------|



Bridge
E|----------------------------------------------------------------------|
B|----------------------------------------------------------------------|
G|----------------------------------------------------------------------|
D|6-6-6-6-6-6-6-6--6-6-6-6-6-6-6-6--4-4-4-4-4-4-4-4-4-4-4-4-4-4-4-4-----|
A|4-4-4-4-4-4-4-4--4-4-4-4-4-4-4-4--2-2-2-2-2-2-2-2-2-2-2-2-2-2-2-2-----|
E|----------------------------------------------------------------------|
Tap to rate this tab
 
# A B C D E F G H I J K L M N O P Q R S T U V W X Y Z