Song name
# A B C D E F G H I J K L M N O P Q R S T U V W X Y Z

Ramones - I Dont Want You tab

intro
e|----------------------------------------------------------------------|
B|----------------------------------------------------------------------|
G|----------------------------------------------------------------------|
D|5555-33-5555-33-5555-33-5555-33---------------------------------------|
A|5555-33-5555-33-5555-33-5555-33---------------------------------------|
E|3333-11-3333-11-3333-11-3333-11---------------------------------------|

verse                                             2nd time play this after
e|-----------------------------------------------|----------------------|
B|-----------------------------------------------|----------------------|
G|----------------------------------8-8-88-888888|-7-7-77-777777--------|
D|5555-3333-5555-3333-5555-3333-----8-8-88-888888|-7-7-77-777777--------|
A|5555-3333-5555-3333-5555-3333-----6-6-66-666666|-5-5-55-555555--------|
E|3333-1111-3333-1111-3333-1111------------------|----------------------|

chorus       2x             3rd time hold 
e|------------------------|--------------------------------|
B|------------------------|--------------------------------|
G|------------------------|--------------------------------|
D|------------8-8-8-8-8-8-|-8-8-8-8-8-8--------------------|
A|5555-3333---6-6-6-6-6-6-|-6-6-6-6-6-6--------------------|
E|3333-1111---------------|--------------------------------|

bridge not sure about this but if you play around with these you  ll get it :)
e|---------------------------------------------------------|
B|---------------------------------------------------------|
G|---------------------------------------------------------|
D|-8888-8888-10-10-10-10-10-10-10-12-12-12-12-12-12-12-12--|
A|-6666-6666--8--8--8--8--8--8-10-10-10-10-10-10-10-10-10--|
E|---------------------------------------------------------|
Tap to rate this tab
# A B C D E F G H I J K L M N O P Q R S T U V W X Y Z