Song name
# A B C D E F G H I J K L M N O P Q R S T U V W X Y Z

Ramones - Here Today Gone Tomorrow tab

-----------------------------------------------------------------------------
                             Here Today, Gone Tomorrow - Ramones
-----------------------------------------------------------------------------
Email: fred_kgr@hotmail.com

I love this song but i couldn't find a good tab that include the "solo", so i 
tabbed it and here it is!

e|-2-2-2-2-2-2-2-2-2-2-2-----------------------2-2-2-2-2-2-2-2-2-2-2--------|
B|-3-3-3-3-3-3-3-3-3-3-3-----------------------3-3-3-3-3-3-3-3-3-3-3--------|
G|-2-2-2-2-2-2-2-2-2-2-2--3-3-3-3-3-3-3-3-3-3--2-2-2-2-2-2-2-2-2-2-2--------|
D|-0-0-0-0-0-0-0-0-0-0-0--4-4-4-4-4-4-4-4-4-4--0-0-0-0-0-0-0-0-0-0-0--------|
A|------------------------4-4-4-4-4-4-4-4-4-4-------------------------------|
E|------------------------2-2-2-2-2-2-2-2-2-2-------------------------------|


e|---------------------2-2-2-2-2-2-2-2-2-2-2---------------------|
B|---------------------3-3-3-3-3-3-3-3-3-3-3---------------------|
G|3-3-3-3-3-1-1-1-1-1--2-2-2-2-2-2-2-2-2-2-2--3-3-3-3-3-3-3-3-3-3|
D|4-4-4-4-4-2-2-2-2-2--0-0-0-0-0-0-0-0-0-0-0--4-4-4-4-4-4-4-4-4-4|
A|4-4-4-4-4-2-2-2-2-2-------------------------4-4-4-4-4-4-4-4-4-4|
E|2-2-2-2-2-0-0-0-0-0-------------------------2-2-2-2-2-2-2-2-2-2|



e|-2-2-2-2-2-2-2-2-2-2-2-----------------------2-2-2-2-2-2-2-2-2-2-2--------|
B|-3-3-3-3-3-3-3-3-3-3-3-----------------------3-3-3-3-3-3-3-3-3-3-3--------|
G|-2-2-2-2-2-2-2-2-2-2-2--3-3-3-3-3-1-1-1-1-1--2-2-2-2-2-2-2-2-2-2-2--------|
D|-0-0-0-0-0-0-0-0-0-0-0--4-4-4-4-4-2-2-2-2-2--0-0-0-0-0-0-0-0-0-0-0--------|
A|------------------------4-4-4-4-4-2-2-2-2-2-------------------------------|
E|------------------------2-2-2-2-2-0-0-0-0-0-------------------------------|


e|-2-2-2--2------------------2--2------------------2--2---------------------|
B|-3-3-3--3------------------3--3------------------3--3---------------------|
G|-2-2-2--2------------------2--2------------------2--2---------------------|
D|-0-0-0--0--2-2--4-4-4-4-4--0--0--2-2--4-4-4-4-4--0--0--2-2--4-4-4-4-4-----|
A|-----------2-2--4-4-4-4-4--------2-2--4-4-4-4-4--------2-2--4-4-4-4-4-----|
E|-----------0-0--2-2-2-2-2--------0-0--2-2-2-2-2--------0-0--2-2-2-2-2-----|


e|----2---2-2-2-2-2-2-2-2-2-2-2-----------------------2-2-2-2-2-2-2-2-2-2-2-|
B|----3---3-3-3-3-3-3-3-3-3-3-3-----------------------3-3-3-3-3-3-3-3-3-3-3-|
G|----2---2-2-2-2-2-2-2-2-2-2-2--3-3-3-3-3-3-3-3-3-3--2-2-2-2-2-2-2-2-2-2-2-|
D|-2--0---0-0-0-0-0-0-0-0-0-0-0--4-4-4-4-4-4-4-4-4-4--0-0-0-0-0-0-0-0-0-0-0-|
A|-2-----------------------------4-4-4-4-4-4-4-4-4-4------------------------|
E|-0-----------------------------2-2-2-2-2-2-2-2-2-2------------------------|


e|---------------------2-2-2-2-2-2-2-2-2-2-2---------------------|
B|---------------------3-3-3-3-3-3-3-3-3-3-3---------------------|
G|3-3-3-3-3-1-1-1-1-1--2-2-2-2-2-2-2-2-2-2-2--3-3-3-3-3-3-3-3-3-3|
D|4-4-4-4-4-2-2-2-2-2--0-0-0-0-0-0-0-0-0-0-0--4-4-4-4-4-4-4-4-4-4|
A|4-4-4-4-4-2-2-2-2-2-------------------------4-4-4-4-4-4-4-4-4-4|
E|2-2-2-2-2-0-0-0-0-0-------------------------2-2-2-2-2-2-2-2-2-2|


e|-2-2-2-2-2-2-2-2-2-2-2-----------------------2-2-2-2-2-2-2-2-2-2-2--------|
B|-3-3-3-3-3-3-3-3-3-3-3-----------------------3-3-3-3-3-3-3-3-3-3-3--------|
G|-2-2-2-2-2-2-2-2-2-2-2--3-3-3-3-3-1-1-1-1-1--2-2-2-2-2-2-2-2-2-2-2--------|
D|-0-0-0-0-0-0-0-0-0-0-0--4-4-4-4-4-2-2-2-2-2--0-0-0-0-0-0-0-0-0-0-0--------|
A|------------------------4-4-4-4-4-2-2-2-2-2-------------------------------|
E|------------------------2-2-2-2-2-0-0-0-0-0-------------------------------|


e|-2-2-2--2------------------2--2------------------2--2---------------------|
B|-3-3-3--3------------------3--3------------------3--3---------------------|
G|-2-2-2--2------------------2--2------------------2--2---------------------|
D|-0-0-0--0--2-2--4-4-4-4-4--0--0--2-2--4-4-4-4-4--0--0--2-2--4-4-4-4-4-----|
A|-----------2-2--4-4-4-4-4--------2-2--4-4-4-4-4--------2-2--4-4-4-4-4-----|
E|-----------0-0--2-2-2-2-2--------0-0--2-2-2-2-2--------0-0--2-2-2-2-2-----|


e|-------2--|
B|-------3--|
G|-------2--|
D|--2----0--|
A|--2-------|
E|--0-------|

Solo:
e|-------2--------------------2---------------------------------------------|
B|----------3--------3-----------3------------2-----------------------------|
G|----2--------2-----------2--------2------------3--------------------------|
D|-0--------------0-----0--------------0-------------4--------4-------------|
A|------------------------------------------------------4-------------------|
E|-----------------------------------------2---------------2-----2----------|


e|----------------------------2--------------------2------------------------|
B|-2-----------------------------3--------3-----------3------------2--------|
G|----3--------------------2--------2-----------2--------2------------3-----|
D|-------4--------4-----0--------------0-----0--------------0---------------|
A|----------4---------------------------------------------------------------|
E|-------------2-----2------------------------------------------2-----------|


e|-------------------------------------------2-------------------2----------|
B|----------------0-----------------------------3-------3-----------3-------|
G|-------------------1--------------------2--------2----------3--------2----|
D|-4--------4-----------2-------2------0-------------0-----0--------------0-|
A|----4--------------------2------------------------------------------------|
E|-------2-----0-------------0-----0----------------------------------------|


e|-2-2-2--2------------------2--2------------------2--2---------------------|
B|-3-3-3--3------------------3--3------------------3--3---------------------|
G|-2-2-2--2------------------2--2------------------2--2---------------------|
D|-0-0-0--0--2-2--4-4-4-4-4--0--0--2-2--4-4-4-4-4--0--0--2-2--4-4-4-4-4-----|
A|-----------2-2--4-4-4-4-4--------2-2--4-4-4-4-4--------2-2--4-4-4-4-4-----|
E|-----------0-0--2-2-2-2-2--------0-0--2-2-2-2-2--------0-0--2-2-2-2-2-----|


e|-2--2------------------2--2------------------2--2-------------------------|
B|-3--3------------------3--3------------------3--3-------------------------|
G|-2--2------------------2--2------------------2--2-------------------------|
D|-0--0--2-2--4-4-4-4-4--0--0--2-2--4-4-4-4-4--0--0--2-2--4-4-4-4-4---------|
A|-------2-2--4-4-4-4-4--------2-2--4-4-4-4-4--------2-2--4-4-4-4-4---------|
E|-------0-0--2-2-2-2-2--------0-0--2-2-2-2-2--------0-0--2-2-2-2-2---------|


e|-------2--|
B|-------3--|
G|-------2--|
D|--2----0--|
A|--2-------|
E|--0-------|
Tap to rate this tab
# A B C D E F G H I J K L M N O P Q R S T U V W X Y Z