Song name
# A B C D E F G H I J K L M N O P Q R S T U V W X Y Z

Ramones - I Dont Wanna Go Down To The Basement tab

Artist: The Ramones
Title: I Don't Wanna Go Down To The Basement
Transcribed by: Me
Tuning: Standard Tuning

I couldn't find a single tab on this website that explained how to play this song 
the way Johnny Ramone played it, so I made this. Barre chord shapes are used, but
you don't play all six strings in this song. I didn't bother showing all six strings
being fretted since you don't play them all anyway. You will notice the "A5" power 
chord in the "INSTRUMENTAL 2" section. Johnny still played that part with an E shape 
barre chord, but he only strummed three strings, making it a "power" chord.
____________________________________________________________________________________

INSTRUMENTAL 1:

    Emaj        Bmaj           Emaj     Bmaj
E|--------------------------|--------------------------|
B|--9-----9--9--------------|--9--9--9-----------------|
G|--9-----9--9--8--8--8--8--|--9--9--9--8-----8--8--8--|
D|--9-----9--9--9--9--9--9--|--9--9--9--9-----9--9--9--|
A|--7-----7--7--9--9--9--9--|--7--7--7--9-----9--9--9--|
E|--7-----7--7--7--7--7--7--|--7--7--7--7-----7--7--7--|

    Dmaj        Amaj           Dmaj     Amaj
E|--------------------------|--------------------------|
B|--7-----7--7--------------|--7--7--7-----------------|
G|--7-----7--7--6--6--6--6--|--7--7--7--6-----6--6--6--|
D|--7-----7--7--7--7--7--7--|--7--7--7--7-----7--7--7--|
A|--5-----5--5--7--7--7--7--|--5--5--5--7-----7--7--7--|
E|--5-----5--5--5--5--5--5--|--5--5--5--5-----5--5--5--|

    Cmaj       Gmaj            Cmaj     Gmaj
E|--------------------------|--------------------------|
B|--5-----5--5--------------|--5--5--5-----------------|
G|--5-----5--5--4--4--4--4--|--5--5--5--4-----4--4--4--|
D|--5-----5--5--5--5--5--5--|--5--5--5--5-----5--5--5--|
A|--3-----3--3--5--5--5--5--|--3--3--3--5-----5--5--5--|
E|--3-----3--3--3--3--3--3--|--3--3--3--3-----3--3--3--|
____________________________________________________________________________________

INSTRUMENTAL 2:

    A5                                     Emaj  Dmaj
E|--------------------------|--------------------------|
B|--------------------------|--------------9-----7-----|
G|--------------------------|--------------9-----7-----|
D|--7-----7--7--7--7--7--7--|--7--7--7--7--9-----7-----|
A|--7-----7--7--7--7--7--7--|--7--7--7--7--7-----5-----|
E|--5-----5--5--5--5--5--5--|--5--5--5--5--7-----5-----|

    A5                                     Emaj  Dmaj
E|--------------------------|--------------------------|
B|--------------------------|--------------9-----7-----|
G|--------------------------|--------------9-----7-----|
D|--7--7--7--7--7--7--7--7--|--7--7--7--7--9-----7-----|
A|--7--7--7--7--7--7--7--7--|--7--7--7--7--7-----5-----|
E|--5--5--5--5--5--5--5--5--|--5--5--5--5--7-----5-----|

    A5                                     Emaj  Dmaj
E|--------------------------|--------------------------|
B|--------------------------|--------------9-----7-----|
G|--------------------------|--------------9-----7-----|
D|--7--7--7--7--7--7--7--7--|--7--7--7--7--9-----7-----|
A|--7--7--7--7--7--7--7--7--|--7--7--7--7--7-----5-----|
E|--5--5--5--5--5--5--5--5--|--5--5--5--5--7-----5-----|

    A5                                     Emaj  Dmaj
E|--------------------------|--------------------------|
B|--------------------------|--------------9-----7-----|
G|--------------------------|--------------9-----7-----|
D|--7--7--7--7--7--7--7--7--|--7--7--7--7--9-----7-----|
A|--7--7--7--7--7--7--7--7--|--7--7--7--7--7-----5-----|
E|--5--5--5--5--5--5--5--5--|--5--5--5--5--7-----5-----|
____________________________________________________________________________________

CHORUS:

    Emaj                       Bmaj     Emaj
E|--------------------------|--------------------------|
B|--9-----9--9--9--9--9--9--|-----------9-----9--9--9--|
G|--9-----9--9--9--9--9--9--|--8-----8--9-----9--9--9--|
D|--9-----9--9--9--9--9--9--|--9-----9--9-----9--9--9--|
A|--7-----7--7--7--7--7--7--|--9-----9--7-----7--7--7--|
E|--7-----7--7--7--7--7--7--|--7-----7--7-----7--7--7--|
  Hey daddy-o                                 I don't

    Dmaj                       Amaj        Dmaj
E|--------------------------|--------------------------|
B|--7-----7--7--7--7--7--7--|-----------7-----7--7--7--|
G|--7-----7--7--7--7--7--7--|--6-----6--7-----7--7--7--|
D|--7-----7--7--7--7--7--7--|--7-----7--7-----7--7--7--|
A|--5-----5--5--5--5--5--5--|--7-----7--5-----5--5--5--|
E|--5-----5--5--5--5--5--5--|--5-----5--5-----5--5--5--|
  wanna go                   dooooooooooown to the base

    Emaj                       Bmaj     Emaj
E|--------------------------|--------------------------|
B|--9-----9--9--9--9--9--9--|-----------9-----9--9--9--|
G|--9-----9--9--9--9--9--9--|--8-----8--9-----9--9--9--|
D|--9-----9--9--9--9--9--9--|--9-----9--9-----9--9--9--|
A|--7-----7--7--7--7--7--7--|--9-----9--7-----7--7--7--|
E|--7-----7--7--7--7--7--7--|--7-----7--7-----7--7--7--|
                                       There's somethin

    Dmaj                       Amaj        Dmaj
E|--------------------------|--------------------------|
B|--7-----7--7--7--7--7--7--|-----------7-----7--7--7--|
G|--7-----7--7--7--7--7--7--|--6-----6--7-----7--7--7--|
D|--7-----7--7--7--7--7--7--|--7-----7--7-----7--7--7--|
A|--5-----5--5--5--5--5--5--|--7-----7--5-----5--5--5--|
E|--5-----5--5--5--5--5--5--|--5-----5--5-----5--5--5--|
  down there                                  I don't

    Emaj                       Bmaj     Emaj
E|--------------------------|--------------------------|
B|--9-----9--9--9--9--9--9--|-----------9-----9--9--9--|
G|--9-----9--9--9--9--9--9--|--8-----8--9-----9--9--9--|
D|--9-----9--9--9--9--9--9--|--9-----9--9-----9--9--9--|
A|--7-----7--7--7--7--7--7--|--9-----9--7-----7--7--7--|
E|--7-----7--7--7--7--7--7--|--7-----7--7-----7--7--7--|
  wanna go                                 Hey,

    Dmaj                       Amaj        Dmaj
E|--------------------------|--------------------------|
B|--7-----7--7--7--7--7--7--|-----------7-----7--7--7--|
G|--7-----7--7--7--7--7--7--|--6-----6--7-----7--7--7--|
D|--7-----7--7--7--7--7--7--|--7-----7--7-----7--7--7--|
A|--5-----5--5--5--5--5--5--|--7-----7--5-----5--5--5--|
E|--5-----5--5--5--5--5--5--|--5-----5--5-----5--5--5--|
  Romeo                                There's somethin

    Emaj                       Bmaj     Emaj
E|--------------------------|--------------------------|
B|--9-----9--9--9--9--9--9--|-----------9-----9--9--9--|
G|--9-----9--9--9--9--9--9--|--8-----8--9-----9--9--9--|
D|--9-----9--9--9--9--9--9--|--9-----9--9-----9--9--9--|
A|--7-----7--7--7--7--7--7--|--9-----9--7-----7--7--7--|
E|--7-----7--7--7--7--7--7--|--7-----7--7-----7--7--7--|
  down there                                  I don't

    Dmaj                       Amaj        Dmaj
E|--------------------------|--------------------------|
B|--7-----7--7--7--7--7--7--|-----------7-----7--7--7--|
G|--7-----7--7--7--7--7--7--|--6-----6--7-----7--7--7--|
D|--7-----7--7--7--7--7--7--|--7-----7--7-----7--7--7--|
A|--5-----5--5--5--5--5--5--|--7-----7--5-----5--5--5--|
E|--5-----5--5--5--5--5--5--|--5-----5--5-----5--5--5--|
  wanna go                   dooooooooooown to the base
____________________________________________________________________________________

INSTRUMENTAL 3:

    Amaj                                   Fmaj  Gmaj
E|--------------------------|--------------------------|
B|--------------------------|--------------------------|
G|--6--6--6--6--6--6--6--6--|--6--6--6--6--2-----4-----|
D|--7--7--7--7--7--7--7--7--|--7--7--7--7--3-----5-----|
A|--7--7--7--7--7--7--7--7--|--7--7--7--7--3-----5-----|
E|--5--5--5--5--5--5--5--5--|--5--5--5--5--1-----3-----|

    Amaj                                   Fmaj  Gmaj
E|--------------------------|--------------------------|
B|--------------------------|--------------------------|
G|--6--6--6--6--6--6--6--6--|--6--6--6--6--2-----4-----|
D|--7--7--7--7--7--7--7--7--|--7--7--7--7--3-----5-----|
A|--7--7--7--7--7--7--7--7--|--7--7--7--7--3-----5-----|
E|--5--5--5--5--5--5--5--5--|--5--5--5--5--1-----3-----|

    Amaj                                   Fmaj  Gmaj
E|--------------------------|--------------------------|
B|--------------------------|--------------------------|
G|--6--6--6--6--6--6--6--6--|--6--6--6--6--2-----4-----|
D|--7--7--7--7--7--7--7--7--|--7--7--7--7--3-----5-----|
A|--7--7--7--7--7--7--7--7--|--7--7--7--7--3-----5-----|
E|--5--5--5--5--5--5--5--5--|--5--5--5--5--1-----3-----|

    Amaj                                   Fmaj  Gmaj
E|--------------------------|--------------------------|
B|--------------------------|--------------------------|
G|--6--6--6--6--6--6--6--6--|--6--6--6--6--2-----4-----|
D|--7--7--7--7--7--7--7--7--|--7--7--7--7--3-----5-----|
A|--7--7--7--7--7--7--7--7--|--7--7--7--7--3-----5-----|
E|--5--5--5--5--5--5--5--5--|--5--5--5--5--1-----3-----|
____________________________________________________________________________________

After that, you play the entire thing two more times, and the then you go into the
extremely brief OUTRO, which goes likes this:

    Emaj        Bmaj           Emaj     Bmaj
E|--------------------------|--------------------------|
B|--9-----9--9--------------|--9--9--9-----------------|
G|--9-----9--9--8--8--8--8--|--9--9--9--8--------------|
D|--9-----9--9--9--9--9--9--|--9--9--9--9--------------|
A|--7-----7--7--9--9--9--9--|--7--7--7--9--------------|
E|--7-----7--7--7--7--7--7--|--7--7--7--7--------------|
____________________________________________________________________________________
Tap to rate this tab
# A B C D E F G H I J K L M N O P Q R S T U V W X Y Z