Guitaretab - guitar tabs
Song name
# A B C D E F G H I J K L M N O P Q R S T U V W X Y Z

Ramones - Listen To My Heart tab

Ramones - Listen To My Heart
Tabbed By: Krissesh
EMail: randolph212@aol.com


Intro

-0--
-1--
-2--
-3--
-3--
----

Verse
-------------------------
-------------------------
---------------7-7-7-----
-7-7-7-7-7-7-7-7-7-7-----
-7-7-7-7-7-7-7-5-5-5-----
-5-5-5-5-5-5-5-----------

Fill Thing
------------------------------------------------------------------
------------------------------------------------------------------
--------------------------------------------------7-7-7-7-7-7-7---
-7-7-7-7-7-7-7-10-10-10-10-10-10-10-7-7-7-7-7-7-7-7-7-7-7-7-7-7---
-7-7-7-7-7-7-7-10-10-10-10-10-10-10-7-7-7-7-7-7-7-5-5-5-5-5-5-5---
-5-5-5-5-5-5-5-8--8--8--8--8--8--8--5-5-5-5-5-5-5-----------------
[ Tab from: http://www.guitaretab.com/r/ramones/43235.html ]
fill thing continued
---------------------------------------
---------------------------------------
---------------------------------------
-6-/-7-7-7-7-7-7 repeat----------------
-6-/-7-7-7-7-7-7-----------------------
-4-/-5-5-5-5-5-5-----------------------

then play verse

then intro only more times than one

then chorus
------------
------------
-9----------
-9---7------
-7---7------
-----5------

then chourus fill
-------------
-------------
-------------
-9-----------
-9-repeat----
-7-----------

play chourus fill

play verse

play fill thing

then play riff 5

----------------------------
----------------------------
-7-7-7-7-7-7-7--------------
-7-7-7-7-7-7-7-7-7-7-7-7-7--
-5-5-5-5-5-5-5-7-7-7-7-7-7--
---------------5-5-5-5-5-5--

then chourus fill 

then chourus

and thats it
Related for Listen To My Heart tab