Song name
# A B C D E F G H I J K L M N O P Q R S T U V W X Y Z

Ramones - Happy Birthday Mr Burns tab

Tabbed By: Chris (The-Kicks)
E-mail: cmc_41@msn.com

I thaught I'd make a tab that was right because all the others are completely wrong. 
Chris

Tuning: Standard

/  slide up
 \  slide down
 h  hammer-on
 p  pull-off
 ~  vibrato
 +  harmonic
 x  Mute note


I'd just like to say this gig sucks, hey, up yours, Springfield

1 2 3 4


intro:
e|-----------------------------------------------------------------------|
B|-----------------------------------------------------------------------|
G|-----------------------------------------------------------------------|
D|--6/7-7-7-7-7-7-7--6/7-7-7-7-7-7-7--6/7-7-7-7-7-7-7--6/7-7-7-7-7-7-7---|
A|--6/7-7-7-7-7-7-7--6/7-7-7-7-7-7-7--6/7-7-7-7-7-7-7--6/7-7-7-7-7-7-7---|
E|--4/5-5-5-5-5-5-5--4/5-5-5-5-5-5-5--4/5-5-5-5-5-5-5--4/5-5-5-5-5-5-5---|

Happy   birthday to you! happy birthday!
--------------------------------------------|
--------------------------------------------|
--------------------------------------------|
--7-7-7-7-7-7-7-7-2-2-2-2-2-2-2-2-----------|
--7-7-7-7-7-7-7-7-2-2-2-2-2-2-2-2-----------|
--5-5-5-5-5-5-5-5-0-0-0-0-0-0-0-0-----------|

Happy   birthday to you! happy birthday!
--------------------------------------------|
--------------------------------------------|
--------------------------------------------|
--2-2-2-2-2-2-2-2-7-7-7-7-7-7-7-7-----------|
--2-2-2-2-2-2-2-2-7-7-7-7-7-7-7-7-----------|
--0-0-0-0-0-0-0-0-5-5-5-5-5-5-5-5-----------|

Happy   birthdaaaayy    Burnsy
----------------------------------------|
----------------------------------------|
------------------7-7-7-7-7-7-7-7-------|
--7-7-7-7-7-7-7-7-7-7-7-7-7-7-7-7-------|
--7-7-7-7-7-7-7-7-5-5-5-5-5-5-5-5-------|
--5-5-5-5-5-5-5-5-----------------------|

Happy   birthdaay   to you!!!
------------------------------------|
------------------------------------|
----------9-9-9-9-------------------|
--7-7-7-7-9-9-9-9-7-7-7-7-7---------|
--7-7-7-7-7-7-7-7-7-7-7-7-7---------|
--5-5-5-5---------5-5-5-5-5---------|

Go to hell you old bastard.
Tap to rate this tab
 
# A B C D E F G H I J K L M N O P Q R S T U V W X Y Z