Guitaretab - guitar tabs
Song name
# A B C D E F G H I J K L M N O P Q R S T U V W X Y Z

Ramones - Somebody Put Something In My Drink tab

                 The Ramones - Somebody Put Something In My Drink

Intro (Listen to the song for exact timing):
|-------------------------------------|
|-------------------------------------|
|-------------------------------------|
|-7-----3--5---2----------------------|
|-7-----3--5---2----------------------|
|-5-----1--3---0----------------------|


Verse(repeat chords like the song):
|------------------------------------|
|------------------------------------|
|------------------------------------|
|-7----------3----------5------------|
|-7----------3----------5------------|
|-5----------1----------3------------|
[ Tab from: http://www.guitaretab.com/r/ramones/60296.html ]

Chorus:
|------------------------------------|
|------------------------------------|
|------------------------------------|
|-7------3------5------2-------------|
|-7------3------5------2-------------|
|-5------1------3------0-------------|

...in my drink,in my drink... :
|------------------------------------|
|------------------------------------|
|------------------------------------|
|-5-----2-------5-----2--------------|
|-5-----2-------5-----2--------------|
|-3-----0-------3-----0--------------|

Solo Backing: Same as verse

No solo,sorry,and sorry for the non-exact chords but i think you getit.....but enjoy!
Related for Somebody Put Something In My Drink tab
Advertisement will be closed in 10 seconds