Song name
# A B C D E F G H I J K L M N O P Q R S T U V W X Y Z

Ramones - Dont Bust My Chops tab

podobnikjernej@hotmail.com - questions, corrections etc =)

Intro:
           3x

E------------------------------|
B------------------------------|
G---------------------------7--|
D----5-5----8-8----10-10----7--|
A----5-5----8-8----10-10----5--|
e----3-3----6-6----8--8--------|

    +

E------------------------------------------------------|
B------------------------------------------------------|
G------------------------------------------------------|
D------------------------------7--7--7--7--7--7--7--7--|
A---10-10-10-10-10-10-10-10----5--5--5--5--5--5--5--5--|
e---8--8--8--8--8--8--8--8-----------------------------|

Verse:

           3x

e------------------------------|
B------------------------------|
G---------------------------7--|
D----5-5----8-8----10-10----7--|
A----5-5----8-8----10-10----5--|
E----3-3----6-6----8--8--------|

     +

E------------------------------------------------------|
B------------------------------------------------------|
G------------------------------------------------------|
D------------------------------7--7--7--7--7--7--7--7--|
A---10-10-10-10-10-10-10-10----5--5--5--5--5--5--5--5--|
e---8--8--8--8--8--8--8--8-----------------------------|

Chours:

                      2x

E------------------------------------------------------------------------|
B------------------------------------------------------------------------|
G------------------------------------------------------------------------|
D----------------------------------------------------------10---8-8---5--|
A----5-5-5-5--5-5-5-5--5-5-5-5--5-5-5-5--5-5-5-5--5-5-5-5--10---8-8---5--|
e----3-3-3-3--3-3-3-3--3-3-3-3--3-3-3-3--3-3-3-3--3-3-3-3--8----6-6---3--|
 (pm). . . .  . . . .  . . . .  . . . .  . . . .  . . . .

     +    4x

E--------------------|
B--------------------|
G---5/7-7-7----5-5---|
D---5/7-7-7----5-5---|
A---3/5-5-5----3-3---|
e--------------------|


Solo:

E---3-------33-------33-------33---------------------------------------|
B---3-------33-------33-------33------------3---5------5--------5-3----|
G------5b(7)---5b(7)----5b(7)----5br(7)-3-5-3-0-5b(6)--5br(6)-3-5-3----|
D----------------------------------------------------------------------|
A----------------------------------------------------------------------|
e----------------------------------------------------------------------|

E---------------------------------------8--------8--------8---------10-|
B----------555555-5-3-0-3h5-3-0--8b(10)---8b(10)---8b(10)---10b(12)----|
G------3/5-555555-5-3-0-3h5-3-0----------------------------------------|
D----5-----------------------------------------------------------------|
A----------------------------------------------------------------------|
e----------------------------------------------------------------------|

E-----------10----------10---------|
B---10b(12)-----10b(12)------------|
G----------------------------------|
D----------------------------------|
A----------------------------------|
e----------------------------------|


Order:

Intro
Verse (2x)
Chours
Verse 2x
Solo
Chours (2x first part)
Tap to rate this tab
# A B C D E F G H I J K L M N O P Q R S T U V W X Y Z