Song name
# A B C D E F G H I J K L M N O P Q R S T U V W X Y Z

Ramones - Danny Says tab

DANNY SAYS

A     B       E   D   c#  Eb F#
---|--------|---|---|---|---|---|
---|--------|---|---|---|---|---|
---|--------|---|---|---|---|---|
---|------4-|-9-|-7-|-6-|-8-|---|
-7-|-9-0r-2-|-7-|-5-|-4-|-6-|-4-|
-5-|-7------|---|---|---|---|-2-|

-------2-0------------------------------|
-3---3----------------------------------|
---2------------------------------------|
----------------------------------------|
----------------------------------------|
----------------------------------------|  x4

---------------------------------------------|
---------------------------------------------|
----9-----9-----9----------------------------|
------9-----9--------7------9-------9--------|
--7------7-----7--------7-----9--------------|
-------------------5------7-----7------------| x3


-------------2-0------------------------|
-------3---3----------------------------|
---------2------------------------------|
--9-------------------------------------|
--7-------------------------------------|
----------------------------------------|

---------------------------------------------|
---------------------------------------------|
----9-----9-----9----------------------------|
------9-----9--------7------9-------9--------|
--7------7-----7--------7-----9--------------|
-------------------5------7-----7------------| x3


(the rest is normal)

    A   B  E
Baby oho-ho-ho
We got nowhere to go
A       B        C#              A   B
And it may sound funny, but it's true

E             A   B
Hangin' out in 100 B
Watching Get Smart on TV
Thinkin' about you and me and you and me


   D
   Hangin' out in L.A. and there's nowhere to go
   A
   It ain't Christmas if there ain't no snow
   D
   Listening to Sheena on the radio oh-ho oh-ho
   B           E
   Oh-ho oh-ho uho-ho


[ F#  B  C# ] x3

F#


G--------------|
D--4--------6--|  [ bass ]
A-----6--7-----|
E--------------|


   F#               B  C#
   Sound check's at 5:02
   Record stores and interviews
   F#                       B      C#  F#
   Oh, but I can't wait to be with you tomorrow


        B   C# F#
   Baby oho-ho-ho
   We got nowhere to go
   B        C#      Eb             B    C#
   And it may sound funny, but it's true


   Hangin' out in...
Tap to rate this tab
# A B C D E F G H I J K L M N O P Q R S T U V W X Y Z