Song name
# A B C D E F G H I J K L M N O P Q R S T U V W X Y Z

Ramones - Its A Long Way Back To Germany tab

-----------------------------------------------------------------------------
	     it's a long way back to germany - the ramones
-----------------------------------------------------------------------------
Tabbed by:steve
Email:allchasvrgay@hotmail.com

Tuning:eadgbe



intro
e|-----------------------------------------------------------------|
B|-----------------------------------------------------------------|
G|--8-8-8-7-7-7-5-5-5-3-3-3----------------------------------------|
D|--8-8-8-7-7-7-5-5-5-3-3-3----------------------------------------|
A|--6-6-6-5-5-5-3-3-3-1-1-1----------------------------------------|
E|-----------------------------------------------------------------|

fill
e|------------------------------------------------------------------|
B|------------------------------------------------------------------|
G|------------------------------------------------------------------|
D|-6-6-6-6-6-8-8-8-8-8----------------------------------------------|
A|-6-6-6-6-6-8-8-8-8-8----------------------------------------------|
E|-4-4-4-4-4-6-6-6-6-6----------------------------------------------|

verse
e|------------------------------------------------------------------|
B|------------------------------------------------------------------|
G|-----------8-8-8-8-8----------------------------------------------|
D|-6-6-6-6-6-8-8-8-8-8----------------------------------------------|
A|-6-6-6-6-6-6-6-6-6-6----------------------------------------------|
E|-4-4-4-4-4--------------------------------------------------------|


Order:
intro X 4
fill  X 2
verse X 4
intro X 4
verse X 4
intro X 4
fill  X 4
intro X 4
verse X 4
intro X 4     hold the last chord 
Tap to rate this tab
# A B C D E F G H I J K L M N O P Q R S T U V W X Y Z