Song name
# A B C D E F G H I J K L M N O P Q R S T U V W X Y Z

Ramones - I Cant Be tab

-----------------------------------------------------------------------------
			I can't be - Ramones
-----------------------------------------------------------------------------
Tabbed by:Steve
Email:allchavsrgay@hotmail.com

Tuning:EADGBe

In this song the intro is in a diffrent key to the chorus but same chord shapes.

Intro
e|-------------------------------------------------------------|
B|-------------------------------------------------------------|
G|-7-7-7-7-7---------------------------------------------------|
D|-7-7-7-7-7-7-7-7-10-9----------------------------------------|
A|-5-5-5-5-5-7-7-7-10-9----------------------------------------|
E|-----------5-5-5-8--7----------------------------------------|

Chorus
e|-------------------------------------------------------|
B|-------------------------------------------------------|
G|-9-9-9-9-9---------------------------------------------|
D|-9-9-9-9-9-9-9-9-9-12-11-------------------------------|
A|-7-7-7-7-7-9-9-9-9-12-11-------------------------------|
E|-----------7-7-7-7-10-9--------------------------------|

Interclude 
e|--------------------------------------------------------------------|
B|--------------------------------------------------------------------|
G|-------------------5/7-7-7-5/7-7-7-7-10/12-12-12-12-10/12-12-12-12--|
D|-5/7-7-7-5/7-7-7-7-5/7-7-7-5/7-7-7-7-10/12-12-12-12-10/12-12-12-12--|
A|-5/7-7-7-5/7-7-7-7-3/5-5-5-3/5-5-5-5--8/10-10-10-10--8/10-10-10-10--|
E|-3/5-5-5-3/5-5-5-5--------------------------------------------------|


Order:
Intro       X4
Chorus      X4
Intro       X4
Chorus      X4
Intro       X4
Chorus      X4
Intro       X4
Interclude  X1
Chorus      X4
Intro       X4
Tap to rate this tab
 
# A B C D E F G H I J K L M N O P Q R S T U V W X Y Z