Guitaretab - guitar tabs
Song name
# A B C D E F G H I J K L M N O P Q R S T U V W X Y Z

Ramones - Palisades Parks tab

Highlighted       Show chord diagrams
Palisades park
Ramones

e--------------------------------------|
b--------------------------------------|
d-5-4----------------------------------|
a-----8-7-6-5-4545-7-6-5-4-------------|
e--------------------------8-7-6767----|

G5
Last night I took a walk in the dark
E5
To a place called Palisades Park
C5
To have some fun, to see what I could see
D5
That's where the girls are

I took a ride on the shoopty shoop
The girl I sat with almost, almost puked
And when it stopped
She was holding hands with me

C5
My arms were flying up, like a rocket ship
E5
Down, like a roller coaster
C5
Fast, like a loopty loop
D5
Then around, like a merry-go-round

G5
We even at a hot dog stand
E5
Slam danced to a rockin' band
C5
And when she winked, I gave that girl a hug
D5
In the tunnel of love

C5
You'll never know how good it just can feel
E5
'Til it stops at the top of the ferris wheel
C5               D5
I fell in love, down at Palisades Park

e--------------------------------------|
b--------------------------------------|
d-5-4----------------------------------| x2
a-----8-7-6-5-4545-7-6-5-4-------------|
e--------------------------8-7-6767----|

[ Tab from: http://www.guitaretab.com/r/ramones/74474.html ]
e--------------------------------------------|
b--------------------------------------------|
d-----------------4/5-55-555-4/5-55--5-------|
a-3-3-3-4/5-55-55----------------------------|
e--------------------------------------------|

G5
Last night I took a walk in the dark
E5
To a place called Palisades Park
C5
To have some fun, to see what I could see
D5
That's where the girls are

I took a ride on the shoopty shoop
The girl I sat with almost, almost puked
And when it stopped
She was holding hands with me

C5
My arms were flying up, like a rocket ship
E5
Down, like a roller coaster
C5
Fast, like a loopty loop
D5
Then around, like a merry-go-round

G5
We even at a hot dog stand
E5
We danced around to a rockin' band
C5
And when she winked, I gave that girl a hug
D5
In the tunnel of love

C5
You'll never know how good it just can feel
E5
'Til it stops at the top of the ferris wheel
C5                D5
I fell in love, down at Palisades Park

e--------------------------------------|
b--------------------------------------|
d-5-4----------------------------------| Till the end
a-----8-7-6-5-4545-7-6-5-4-------------|
e--------------------------8-7-6767----|

Ahi esta esta grosa cancion!!!
Mail:meconvertienunmarciano@hotmail.com
Related for Palisades Parks tab