Song name
# A B C D E F G H I J K L M N O P Q R S T U V W X Y Z

Ramones - I Lost My Mind tab

Ramones
I lost my mind

e--------------------------------|
b--------------------------------|
g----------5-7-5----------5------|  x6
d-7-777777-5-7-5-7-777777-5-5----|
a-7-777777-3-5-3-7-777777-3-5----|
e-5-555555-------5-555555---3----|

e---------------------|
b----------6-8-6------|
g-7-777777-5-7-5------| x4
d-7-777777-3-5-3------|
a-5-555555------------|
e---------------------|

e--------------------------------|
b--------------------------------|
g----------5-7-5----------5------|  x4
d-7-777777-5-7-5-7-777777-5-5----|
a-7-777777-3-5-3-7-777777-3-5----|
e-5-555555-------5-555555---3----|
                                                          .
e-------------------------------------------------5-------5-555------555--|
b--------------------------------5-5--5-5---5--55-5--.----5-555------555--|
g-7b(9)(9)--(9)(9)(9)(9)\7-5-7-5-5-5--5-5---5--55---7b(9)-------7b(9)-----|
d-----------------------------------------7-------------------------------|
a-------------------------------------------------------------------------|
e-------------------------------------------------------------------------|


e-------555-8-5--------555-8-5----------------------------|
b-------555-8-5--------555-8-5-5-------5------------------|
g-7b(9)----------7b(9)-----------7b(9)--7br(9)-7~~--------|
d---------------------------------------------------------|
a---------------------------------------------------------|
e---------------------------------------------------------|

e---------------------|
b----------6-8-6------|
g-7-777777-5-7-5------| x4
d-7-777777-3-5-3------|
a-5-555555------------|
e---------------------|

e--------------------------------|
b--------------------------------|
g----------5-7-5----------5------|  x4
d-7-777777-5-7-5-7-777777-5-5----|
a-7-777777-3-5-3-7-777777-3-5----|
e-5-555555-------5-555555---3----|

A5

El solo lo saque de oido es lo que pude escuchar no se si esta bien...pero suena.
Mail:meconvertienunmarciano@hotmail.com
Tap to rate this tab
# A B C D E F G H I J K L M N O P Q R S T U V W X Y Z