Guitaretab - guitar tabs
Song name
# A B C D E F G H I J K L M N O P Q R S T U V W X Y Z

Ramones - Youre Gonna Kill That Girl tab

excellent song, enjoy :D lyrics are a bit wrong, but hey! 


volume on guitar - half

let ring throughout
e|-------------------------------------------------------|
B|---2--------------------------------------2-----0------|
G|---2--------------------------------------2-----0------|
D|---2--------------------------------------2-----0------|
A|-------------------------------------------------------|
E|-------------------------------------------------------|
       I SAW HER WALKING DOWN THE STREET...

e|-------------------------------------------------2-----|
B|-------------------------------------------------2-----|
G|-------------------------------------------3-----3-----|
D|-------------------------------------------4-----4-----|
A|-------------------------------------------4-----------|
E|-------------------------------------------2-----------|
  HE JUMPED DOWN, KNOECKED HER OFF HER FEET...

e|-------------------------------------------------------|
B|-------------------------------------------0-----------|
G|-------------------------------------------1-----------|
D|-------------------------------------------2-----------|
A|-------------------------------------------2-----------|
E|-------------------------------------------------------|
  AND THEN I KNEW, IT WAS THE END OF HER...





[ Tab from: http://www.guitaretab.com/r/ramones/74508.html ]
turn up guitar volume to full
(exact strums may be incorrect,but you'll get the idea)
e|-5---------------------------------2-------------------------------|
B|-5---------------------------------2-------------------------------|
G|-6--6-6-6-6-6-6-6-6-6-6-6-6-6-6-6--3-3-3-3-3-3-3-3-3-3-3-3-3-3-3---|
D|-7--7-7-7-7-7-7-7-7-7-7-7-7-7-7-7--4-4-4-4-4-4-4-4-4-4-4-4-4-4-4---|
A|-7--7-7-7-7-7-7-7-7-7-7-7-7-7-7-7--4-4-4-4-4-4-4-4-4-4-4-4-4-4-4---|
E|-5--5-5-5-5-5-5-5-5-5-5-5-5-5-5-5--2-2-2-2-2-2-2-2-2-2-2-2-2-2-2---|
  HEY, HE'S GONNA KILL THAT GIRL!    HE'S GONNA KILL THAT GIRL!


e|-5------------------------------7----------------------|
B|-7-7-7-7-7-7-7-7-7-7-7-7-7-7-7--9-9-9-9-9-9-9-9-9-9-9--|
G|-7-7-7-7-7-7-7-7-7-7-7-7-7-7-7--9-9-9-9-9-9-9-9-9-9-9--|
D|-7-7-7-7-7-7-7-7-7-7-7-7-7-7-7--9-9-9-9-9-9-9-9-9-9-9--| REPEAT
A|-5-5-5-5-5-5-5-5-5-5-5-5-5-5-5--7-7-7-7-7-7-7-7-7-7-7--|
E|-------------------------------------------------------|
   HE'S GONNA KILL THAT GIRL TO - NIGHT,  NIIIIGHHT







e|-------------------------------------------------------------------------|
B|------------------------------------2-2-2-2-2-2-2-2-2-2-2-2-2-2-2-2-2-2-2|
G|-7-7-7-7-7-7-7-7-7-7-7-7-7-7-7-7-7--2-2-2-2-2-2-2-2-2-2-2-2-2-2-2-2-2-2-2|
D|-7-7-7-7-7-7-7-7-7-7-7-7-7-7-7-7-7--0-0-0-0-0-0-0-0-0-0-0-0-0-0-0-0-0-0-0|
A|-5-5-5-5-5-5-5-5-5-5-5-5-5-5-5-5-5---------------------------------------|
E|-------------------------------------------------------------------------|
   I SAW HER WALKING DOWN THE STREET, MY HEART STOOD STILL AND SKIPT A BEAT

e|-----------------------------------------------------------------------|
B|-----------------------------------------------------------------------|
G|-7-7-7-7-7-7-7-7-7-7-7-7-7-7-7-7-7-------------------------------------|
D|-7-7-7-7-7-7-7-7-7-7-7-7-7-7-7-7-7--7-7-7-7-7-7-7-7-7-7-7-7-7-7-7-7-7-7|
A|-5-5-5-5-5-5-5-5-5-5-5-5-5-5-5-5-5--7-7-7-7-7-7-7-7-7-7-7-7-7-7-7-7-7-7|
E|------------------------------------5-5-5-5-5-5-5-5-5-5-5-5-5-5-5-5-5-5|
  THEN HE KNOCKED HER ON THE FLOOR.    ALL HE WANTED WAS A LITTLE BIT MORE

and thats it! just repeat the individual pasrt as neccecary :)
Related for Youre Gonna Kill That Girl tab
×
Best way to learn
"Youre Gonna Kill That Girl"