Song name
# A B C D E F G H I J K L M N O P Q R S T U V W X Y Z

Ramones - Bop Til You Drop tab

Evan Warren
Bop Til You Drop
The Ramones

G ---------------------------------------------------------------------------|
D ---------------------------------------------------------------------------|
A ---------------------------------------------------------------------------|
E -0-0-0-0-0-0-3-0-0-3-0-0-0-0-0-0-0-3-0-0-3-0-0-0-0-0-0-0-0-0-0-3-5-0-0-0-0-|

G -------------------------------------------------------------------------|
D -------------------------------------------------------------------------|
A -----------------------------------------------------2-2-2-2-2-2-2-2-2-2-|
E -0-0-0-0-0-0-3-5-0-0-0-0-0-0-0-3-5-0-0-0-0-0-0-0-3-5---------------------|

G -------------------------------------------------------------------------|
D -------------------------------------------------------------------------|
A -2-2-2-2-2-2-2-2-0-0-0-0-0-0-0-0-0-0-------------------------------------|
E -------------------------------------0-0-0-0-0-0-0-0-0-3-5-0-0-0-0-0-0-0-|

G ---------------------------------------------------------------------------|
D ---------------------------------------------------------------------------|
A ---------------------------------------------------------------------------|
E -0-0-0-0-3-5-0-0-0-0-0-0-0-0-3-5-0-0-0-0-0-0-3-5-0-0-0-0-0-0-0-0-0-3-5-0-0-|

G --------------------------------------------------------------------------|
D --------------------------------------------------------------------------|
A ---------------2-2-2-2-2-2-2--2-2-2-2-2-0-0-0-0-0-0-0-0-0-0-0-0-----------|
E -0-0-0-0-0-3-5---------------------------------------------------0-0-0-0--|

G --------------------------------------------------------------------------|
D --------------------------------------------------------------------------|
A -------------------------------------7------------------------------------|
E -0-0-0-0-0-0-3-5-0-0-0-0-0-0-0-0-3-5----7-7-7-5-5-3-0-0-0-0-0-3-0-0-0-0-0-|

G --------------------------------------------------------------------------|
D --------------------------------------------------------------------------|
A --7--------------------------------------7--------------------------------|
E ---7-7-7-5-5-3-0-0-0-0-0-3-0-0-0-0-0-0-0----7-7-7-5-5-3-0-0-0-0-0-3-0-0-0-|

G --------------------------------------------------------------------------|
D --------------------------------------------------------------------------|
A --7-----------------------------------------------------------------------|
E ----7-7-7-5-5-3-0-0-0-0-0-0-3-0-0-0-0-0-0-0-0-0-0-0-0-3-0-0-3-0-0-0-0-0-0-|

G ---------------------------------------------------------------------------|
D ---------------------------------------------------------------------------|
A ---------------------------------------------------------------------------|
E -0-0-0-0-3-0-0-3-0-0-0-0-0-0-0-0-0-3-5-0-0-0-0-0-0-0-0-3-5-0-0-0-0-0-0-3-5-|

G --------------------------------------------------------------------------|
D --------------------------------------------------------------------------|
A -----------------------------2-2-2-2-2-2-2-2-2-2-0-0-0-0-0-0-0-0-0--------|
E 0-0-0-0-0-0-3-5-0-0-0-0-0-0-----------------------------------------0-0-0-|

G --------------------------------------------------------------------------|
D --------------------------------------------------------------------------|
A -----------------------------------------7--------------------------------|
E -0-0-0-0-0-0-0-3-5-0-0-0-0-0-0-0-0-0-3-5----7-7-7-5-5-3-0-0-0-0-0-0-0-3-0-|

G ---------------------------------------------------------------------------|
D ---------------------------------------------------------------------------|
A ----------7--------------------------------7-------------------------------|
E -0-0-0-0----7-7-7-5-5-3-0-0-0-0-0-0-3-0-0-0---7-7-7-5-5-3-0-0-0-0-0-0-3-0--|

G --------------------------------------------------------------------------|
D --------------------------------------------------------------------------|
A ---------7----------------------------------------------------------------|
E -0-0-0-0----7-7-7-5-5-3-0-0-0-0-0-0-3-0 let ring -------------------------|
Tap to rate this tab
# A B C D E F G H I J K L M N O P Q R S T U V W X Y Z