Song name
# A B C D E F G H I J K L M N O P Q R S T U V W X Y Z

Ramones - I Dont Wanna Go Down To The Basement tab

Help us improve GuitareTab! Take a short survey!
Tabed by: Lionel Llama
E-mail: lionel.llama@gmail.com
.

Intro
e|-----------------------------------------------------------------|
B|-----------------------------------------------------------------|
G|--9-9-----------9-9-9------------7-7-----------7-7-7-------------|
D|--9-9--9-9-9-9--9-9-9--9--9-9-9--7-7--7-7-7-7--7-7-7--7--7-7-7---|
A|--7-7--9-9-9-9--7-7-7--9--9-9-9--5-5--7-7-7-7--5-5-5--7--7-7-7---|
E|-------7-7-7-7---------7--7-7-7-------5-5-5-5---------5--5-5-5---|

e|-----------------------------------------------------------------|
B|-----------------------------------------------------------------|
G|--5-5-----------5-5-5-------------------------------------9--7---|
D|--5-5--5-5-5-5--5-5-5--5--5-5-5--7-7-7-7-7-7-7-7-7-7-7-7--9--7---|
A|--3-3--5-5-5-5--3-3-3--5--5-5-5--7-7-7-7-7-7-7-7-7-7-7-7--7--5---|
E|-------3-3-3-3---------3--3-3-3--5-5-5-5-5-5-5-5-5-5-5-5---------|

e|-----------------------------------------------------------------|
B|-----------------------------------------------------------------|
G|---------------------------9--7---------------------------9--7---|
D|--7-7-7-7-7-7-7-7-7-7-7-7--9--7--7-7-7-7-7-7-7-7-7-7-7-7--9--7---|
A|--7-7-7-7-7-7-7-7-7-7-7-7--7--5--7-7-7-7-7-7-7-7-7-7-7-7--7--5---|
E|--5-5-5-5-5-5-5-5-5-5-5-5--------5-5-5-5-5-5-5-5-5-5-5-5---------|

e|-----------------------------------------------------------------|
B|-----------------------------------------------------------------|
G|---------------------------9--7----------------------------------|
D|--7-7-7-7-7-7-7-7-7-7-7-7--9--7----------------------------------|
A|--7-7-7-7-7-7-7-7-7-7-7-7--7--5----------------------------------|
E|--5-5-5-5-5-5-5-5-5-5-5-5----------------------------------------|

Verse

e|-----------------------------------------------------------------|
B|-----------------------------------------------------------------|
G|--9-9-9-9-9-9-9-9-9-9-----------9-9-9-9--------------------------|
D|--9-9-9-9-9-9-9-9-9-9--9-9-9-9--9-9-9-9--------------------------|
A|--7-7-7-7-7-7-7-7-7-7--9-9-9-9--7-7-7-7--------------------------|
E|-----------------------7-7-7-7-----------------------------------|

e|-----------------------------------------------------------------|
B|-----------------------------------------------------------------|
G|--7-7-7-7-7-7-7-7-7-7-----------7-7-7-7--------------------------|
D|--7-7-7-7-7-7-7-7-7-7--7-7-7-7--7-7-7-7--------------------------|
A|--5-5-5-5-5-5-5-5-5-5--7-7-7-7--5-5-5-5--------------------------|
E|-----------------------5-5-5-5-----------------------------------|

Fill
e|-----------------------------------------------------------------|
B|-----------------------------------------------------------------|
G|---------------------------3--5----------------------------------|
D|--7-7-7-7-7-7-7-7-7-7-7-7--3--5----------------------------------|
A|--7-7-7-7-7-7-7-7-7-7-7-7--1--3----------------------------------|
E|--5-5-5-5-5-5-5-5-5-5-5-5----------------------------------------|

Order
Intro x1
Verse x4
Fill  x4
Intro x1
Verse x4
Fill  x4
Intro x1
Verse x4
Fill  x4
Intro x0.5
Related for I Dont Wanna Go Down To The Basement tab