Song name
# A B C D E F G H I J K L M N O P Q R S T U V W X Y Z

Ramones - Indian Giver tab

Help us improve GuitareTab! Take a short survey!
e------------------------------------------|
B------------------------------------------|
G------------------------------------------|
D------------------------------------------|
A------------------------------------------|  x4
E-10-10-10-10-10-10-10-10--5-5-5-5-5-5-5-5-|

"I can still remember, it was not long ago..."
e-------------------------------------------------------------------------------|
B-------------------------------------------------------------------------------|
G-7-7-7-7-7-7-7-7-7--9-9-9-9-9-9-9-9--12-12-12-12-12-12-12-12--7-7-7-7-7-7-7-7--|
D-7-7-7-7-7-7-7-7-7--9-9-9-9-9-9-9-9--12-12-12-12-12-12-12-12--7-7-7-7-7-7-7-7--|
A-5-5-5-5-5-5-5-5-5--7-7-7-7-7-7-7-7---9--9--9--9--9--9--9--9--5-5-5-5-5-5-5-5--|
E-------------------------------------------------------------------------------|

"Told me that you loved me..."
e----------------------------------------------------------------|
B----------------------------------------------------------------|
G--7-x-x-x-x-7/8/9-9-x-x-x-x-9/11/12-x-x-x-x-12\-7-7-7-7-7-7-7-7-|
D--7-x-x-x-x-7/8/9-9-x-x-x-x-9/11/12-x-x-x-x-12\-7-7-7-7-7-7-7-7-|
A--5-x-x-x-x-5/6/7-7-x-x-x-x-7/-9/10-x-x-x-x--9\-5-5-5-5-5-5-5-5-|
E----------------------------------------------------------------|
"Indian giver Indian giver..."
e-------------------------------------------------------------------|
B-------------------------------------------------------------------|
G----------------------------------7-7-7-7-7-7-7-7------------------|
D-4/5-5-5-5-5-5-5-5-5-5-5-5-5-5-5--7-7-7-7-7-7-7-7--7-7-7-7-7-7-7-7-|
A-4/5-5-5-5-5-5-5-5-5-5-5-5-5-5-5--5-5-5-5-5-5-5-5--7-7-7-7-7-7-7-7-|
E-2/3-3-3-3-3-3-3-3-3-3-3-3-3-3-3-------------------5-5-5-5-5-5-5-5-|

e---------------------------------------------------------------------------------------------|
B---------------------------------------------------------------------------------------------|
G---------------------------------------------------------------------------------------------|
D---------------------------------------------------------------------------------------------|
A---------------------------------------------------------------------------------------------|
E-10-10-10-10-10-10-10-10-10-10-10-10-10-10-10-10-10-10-10-10-10-10-10-10-5-5-5-5-10-10-10-10-|

Then repeat the whole thing and go in to this

e--------------------------------------------------------------------------------------------------|
B--------------------------------------------------------------------------------------------------|
G-------------------------------------------------19-19-19-19-19-19-19-19-19-19-19-19-19-19-19-19--|
D-17-17-17-17-17-17-17-17-17-17-17-17-17-17-17-17--------------------------------------------------|
A--------------------------------------------------------------------------------------------------|
E--------------------------------------------------------------------------------------------------|

e--------------------------------------------------------------------------------------------------|
B--------------------------------------------------------------------------------------------------|
G-------------------------------------------------19-19-19-19-19-19-19-19--------------------------|
D-17-17-17-17-17-17-17-17-17-17-17-17-17-17-17-17-------------------------19-19-19-19-19-19-19-19--|
A--------------------------------------------------------------------------------------------------|
E--------------------------------------------------------------------------------------------------|

e-------------------------------------------|
B-------------------------------------------|
G-------------------------------------------|
D-------12-12-10-10-------------------------|
A---12--------------------------------------|  x4

"Indian giver Indian giver..."
e--------------------------------------------------|
B--------------------------------------------------|
G--------------------------------------------------|
D-14------9-9-9-9-9-9-9-9--14-14-14-14-14-14-14-14-|
A-14-x24--9-9-9-9-9-9-9-9--14-14-14-14-14-14-14-14-| Repeat until song is done
E-12------7-7-7-7-7-7-7-7--12-12-12-12-12-12-12-12-|

Thanks for reading my tab of Indian Giver from the album Subterranean Jungle by the Ramones.
Related for Indian Giver tab