Guitaretab - guitar tabs
Song name
# A B C D E F G H I J K L M N O P Q R S T U V W X Y Z

Ramones - Merry Christmas I Dont Want To Fight Tonight tab

-------------------------------------------------------------------------------
			     Merry Christmas I Don't Want To Fight Tonight - The Ramones
-------------------------------------------------------------------------------
Tabbed by:mike alberghni
Email:aghini@comcast.net

Tuning:standard

i can't read the guitar pro tab, so i can't tell if this is the same tab. my guitar 
taught me this. since it's christmas, i needs to be here

G|--------------------------------------------------||
D|--------------------------------------------------||
A|-------888-10 10-10-10-10-------------------------||
E|8888888-------------------------------------------||

[ Tab from: http://www.guitaretab.com/r/ramones/82540.html ]
G|-----------------------------------------------------------|
D|-----------------------------------------------------------|
A|----88---------------------------------10-10-10-10-10-10---|
E|888----10-10-10-10-10-10-10----88888-----------------------|


G|---------------------------------------------------------------|
D|---------------------------------------------------------------|
A|-------888-10-10-10-10-10-10-----------------------------------|
E|8888888--------------------------------------------------------|

Chorus
G|-----------------------------------------------------------------------------|
D|-----------------------------------------------------------------------------|
A|888888---------888888-55555555-10-10-10-10-10-10-10--------------------------|
E|-------888888----------------------------------------------------------------|


Outro
G|-----------------------------------------------------------||
D|-----------------------------------------------------------||
A|--------10-10-10-10-10-10-10-10----------------------------||
E|-888888------------------------------8---8---8---8---8-----||
Related for Merry Christmas I Dont Want To Fight Tonight tab
×
Merry Christmas I Dont Want To Fight Tonight