Song name
# A B C D E F G H I J K L M N O P Q R S T U V W X Y Z

Ramones - What A Wondeful World tab

TITLE:       what a wonderful world
ARTIST:      ramones
ALBUM:       don't worry about me
TABBED BY:   silentrocker21
E-MAIL:      lorenz10_15@yahoo.com

nice song by RamoneS, they rocked the song... hahaha...;p great rock band... hope you 
my tab, lyrics at the end of the tab...
add me in friendster/myspace: lorenz10_15@yahoo.com
thankz...
(juzt msg me if u want me to tab a new rock song that you like...\m/\m/)

GUITAR TUNING : STANDARD

InTrO:
e|-------------------------|
B|-------------------------|
G|-------------------------|
D|-----------3-3-----------|
A|-------------------3-3---|
E|---13\-1-1-----1-1-------|
         ^             ^
         :--repeat 8x--:


vErSe:
e|--------------------------------------------------------------|
B|--------------------------------------------------------------|
G|--------------------------------------------------------------|
D|---3------2------3------2------5------3------6------7---------|
A|---3------0------1------0------5------3------4------5---------|
E|---1---------------------------3------1-----------------------|
    (8x)   (8x)   (8x)   (8x)   (8x)   (8x)   (8x)   (8x)
    ^                                                   ^
    :--------------------------PM-----------------------:


e|------------------------------------------------------|
B|------------------------------------------------------|
G|------------------------------------------------------|
D|---6----------6---------3------5------3------5--------|
A|---4------6/8---8-6-4---1------3------3------3--------|
E|--------------------------------------1---------------|

e|--------------------------------------------------------------|
B|--------------------------------------------------------------|
G|--------------------------------------------------------------|
D|---3------2------3------2------5------3------6------7---------|
A|---3------0------1------0------5------3------4------5---------|
E|---1---------------------------3------1-----------------------|
    (8x)   (8x)   (8x)   (8x)   (8x)   (8x)   (8x)   (8x)
    ^                                                   ^
    :--------------------------PM-----------------------:


e|---------------------------------------------------------------|
B|---------------------------------------------------------------|
G|---------------------------------------------------------------|
D|---6----------6---------3------5------3---2h3--2h3--2h3--2h3---|
A|---4------6/8---8-6-4---1------3------3---3----3----3----3-----|
E|--------------------------------------1---1----1----1----1-----|

BrIdGe:
e|-----------------------------------------------------------------|
B|-----------------------------------------------------------------|
G|-----------------------------------------------------------------|
D|--5---3---2/3-3---5---3---2/3-3---7---7---7---7---7---7---3---5--|
A|--3---3---2/3-3---3---3---2/3-3---5---7---5---7---5---7---1---3--|
E|------1---0/1-1-------1---0/1-1-------5-------5-------5----------|

vErSe:
e|--------------------------------------------------------------|
B|--------------------------------------------------------------|
G|--------------------------------------------------------------|
D|---3------2------3------2------5------3------6------7---------|
A|---3------0------1------0------5------3------4------5---------|
E|---1---------------------------3------1-----------------------|
    (8x)   (8x)   (8x)   (8x)   (8x)   (8x)   (8x)   (8x)
    ^                                                   ^
    :--------------------------PM-----------------------:


e|---------------------------------------------------|
B|---------------------------------------------------|
G|---------------------------------------------------|
D|---6----------6---------3------5------10---8---7---|
A|---4------6/8---8-6-4---1------3------8----6---5---|
E|---------------------------------------------------|


e|--------------------------------------------|
B|--------------------------------------------|
G|--------------------------------------------|
D|---3------5------10---8---7------3------5---|
A|---1------3------8----6---5------1------3---|
E|--------------------------------------------|
                   ^        ^
                   :repeat2x:


e|--------------------------------------------------------------|
B|--------------------------------------------------------------|
G|--------------------------------------------------------------|
D|-------6-----------6-------------8-------------8-8-8-8---10---|
A|---6/8---8-6-4-6/8---8-6-4--8/10---10-8-6-8/10-----------8----|
E|--------------------------------------------------------------|




Key:
T   - Tap (Strings)
PM  - Palm Muting
/   - Slide Up
\   - Slide Down
h   - Hammer-on
p   - Pull-off
~   - Let the note ringing
s   - Strum softly
c   - Continue and Continuation
^   - Bend
*   - Harmonics

<---------------lyrics--------------->
verse:
i see trees so green, red roses too
i see them bloom for me and you
and i say to myself, what a wonderful world...

verse:
i see skies so blue and clouds so white
bright sunny days, dark secret nights
and i tell to myself, what a wonderful world

bridge:
colors of the rainbow are so pretty in the skies
are also on the faces of people walk on by
i see friends shakin hands say "how do you do?"
they're really saying it "i love you"

verse:
i see babies crawl while watch them grow
they'll learn much more, than i'll ever know
and i tell to myself, what a wonderful world
yes i tell to myself, what a wonderful world
and i say to myself, what a wonderful world...
Tap to rate this tab
# A B C D E F G H I J K L M N O P Q R S T U V W X Y Z