Guitaretab - guitar tabs
Song name
# A B C D E F G H I J K L M N O P Q R S T U V W X Y Z

Ramones - Warthog tab

|----------------------------------------|
|----------------------------------------|
|10101010101010--------------------------|x4
|10101010101010--101010-8-8-8------------|
|8-8-8-8--8-8-8--101010-8-8-8------------|
|----------------8-8-8--6-6-6------------|
Wart, wart hog
Wart, wart hog
Wart, wart hog
Wart, wart hog

|----------------------------------------|
|----------------------------------------|
|101010101010----------------------------|x4
|101010101010-6-6-6-6-6-8-8-8-8-8--------|
|8-8-8-8-8-8--6-6-6-6-6-8-8-8-8-8--------|
|-------------4-4-4-4-4-6-6-6-6-6--------|
I take some dope, I feel so sick
It's a sick world, sick, sick, sick
Doomsday visions of junkies and fags
Artificial phonies, I hate it, hate it

|----------------------------------------|
|----------------------------------------|
|--------6-6-6-8-8-8-8-8-8---------------|x2
|8-8-8-8-6-6-6-8-8-8-8-8-8---------------|
|8-8-8-8-4-4-4-6-6-6-6-6-6---------------|
|6-6-6-6---------------------------------|

|----------------------------------------|
|----------------------------------------|
|101010101010----------------------------|x4
|101010101010-6-6-6-6-6-8-8-8-8-8--------|
|8-8-8-8-8-8--6-6-6-6-6-8-8-8-8-8--------|
|-------------4-4-4-4-4-6-6-6-6-6--------|
Death, death, death it's the price I pay
It's a sick world, what can I say?
No such thing as an even break
It's stealing and cheating, take, take, take

|----------------------------------------|
|----------------------------------------|
|10101010101010--------------------------|x4
|10101010101010--101010-8-8-8------------|
|8-8-8-8--8-8-8--101010-8-8-8------------|
|----------------8-8-8--6-6-6------------|
Wart, wart hog
Wart, wart hog
Wart, wart hog
Wart, wart hog

|----------------------------------------|
|----------------------------------------|
|101010101010----------------------------|x4
|101010101010-6-6-6-6-6-8-8-8-8-8--------|
|8-8-8-8-8-8--6-6-6-6-6-8-8-8-8-8--------|
|-------------4-4-4-4-4-6-6-6-6-6--------|
I wanna puke, I can't sit still
Just took some dope and I feel ill
It's a sick world, sick, sick, sick
It's a hopeless life, I hate it, hate it
[ Tab from: http://www.guitaretab.com/r/ramones/88633.html ]
|-----------------------------------------|
|-----------------------------------------|
|101010-----------------------------------|x4
|101010-8-8-8-8-6-6-6-6-------------------|
|8-8-8--8-8-8-8-6-6-6-6-------------------|
|-------6-6-6-6-4-4-4-4-------------------|

|----------------------------------------|
|----------------------------------------|
|101010101010----------------------------|x4
|101010101010-8-8-8-8-8-6-6-6-6-6--------|
|8-8-8-8-8-8--8-8-8-8-8-6-6-6-6-6--------|
|-------------6-6-6-6-6-4-4-4-4-4--------|
It's a joke, it's a lie, it's a rip-off, man
It's an outlaw life, we're a renegade band
Doomsday visions of commies and queers
Artificial phonies, I hate it, hate it

|----------------------------------------|
|----------------------------------------|
|10101010101010--------------------------|x4
|10101010101010--101010-8-8-8------------|
|8-8-8-8--8-8-8--101010-8-8-8------------|
|----------------8-8-8--6-6-6------------|
Wart, wart hog
Wart, wart hog
Wart, wart hog
Wart, wart hog

|----------------------------------------|
|----------------------------------------|
|--------6-6-6-8-8-8-8-------------------|x2
|8-8-8-8-6-6-6-8-8-8-8-------------------|
|8-8-8-8-4-4-4-6-6-6-8-------------------|
|6-6-6-6---------------------------------|

|-----------------------------|
|-----------------------------|
|8-8-8-8-11111111-12-12-12-12-|
|8-8-8-8-11111111-12-12-12-12-|x2
|6-6-6-6-9-9-9-9--11-11-11-11-|
|-----------------------------|

|----------------------------------------|
|----------------------------------------|
|10101010101010--------------------------|x4
|10101010101010--101010-8-8-8------------|
|8-8-8-8--8-8-8--101010-8-8-8------------|
|----------------8-8-8--6-6-6------------|
Wart, wart hog
Wart, wart hog
Wart, wart hog
Wart, wart hog

|----------------------------------------|
|----------------------------------------|
|--------6-6-6-8-8-8-8-------------------|x2
|8-8-8-8-6-6-6-8-8-8-8-------------------|
|8-8-8-8-4-4-4-6-6-6-8-------------------|
|6-6-6-6---------------------------------|

|-----------------------------------------|
|-----------------------------------------|
|8-8-8-8-11111111-12-12-12-12-------------|
|8-8-8-8-11111111-12-12-12-12-------------|x2
|6-6-6-6-9-9-9-9--11-11-11-11-------------|
|-----------------------------------------|
|-----------------------------------------|
|-----------------------------------------|
|10101010101010---------------------------|x4
|10101010101010--101010-8-8-8-------------|
|8-8-8-8--8-8-8--101010-8-8-8-------------|
|----------------8-8-8--6-6-6-------------|
Wart, wart hog
Wart, wart hog
Wart, wart hog
Wart, wart hog
Related for Warthog tab
Warthog chords by Ramones