Song name
# A B C D E F G H I J K L M N O P Q R S T U V W X Y Z

Ramones - Loudmouth tab

Loudmouth by the Ramones
(standard tuning)

|------------------------|------------------------|------------------------|
|------------------------|------------------------|------------------------|
|------------------------|-7--9-------------------|-7--9-------------------|
|-------------------9----|-5--7--9-9-9-9--9-9-9-9-|-5--7--7-7-7-7--7-7-7-7-|
|-7-7-7-7--7-7-7-7--7--9-|-------7-7-7-7--7-7-7-7-|-------5-5-5-5--5-5-5-5-|
|-5-5-5-5--5-5-5-5-----7-|------------------------|------------------------|
 4 times                  2 times                  2 times

|-------------------------------------|
|-------------------------------------|
|-11111111-----------9-9-9-9----------|
|-9-9-9-9--12121212--7-7-7-7--9-9-9-9-|
|----------10101010-----------7-7-7-7-|
|-------------------------------------|


|------------------------|------------------------|------------------------|
|------------------------|------------------------|------------------------|
|------------------------|-7--9-------------------|-7--9-------------------|
|-------------------9----|-5--7--9-9-9-9--9-9-9-9-|-5--7--7-7-7-7--7-7-7-7-|
|-7-7-7-7--7-7-7-7--7--9-|-------7-7-7-7--7-7-7-7-|-------5-5-5-5--5-5-5-5-|
|-5-5-5-5--5-5-5-5-----7-|------------------------|------------------------|
 4 times                  2 times                  2 times

|-------------------------------------|
|-------------------------------------|
|-11111111-----------9-9-9-9----------|
|-9-9-9-9--12121212--7-7-7-7--9-9-9-9-|
|----------10101010-----------7-7-7-7-|
|-------------------------------------|


|---------------------------------------------------------------|
|---------------------------------------------------------------|
|---------------------------------------------------------------|
|-9--------------7--------------5-------------------------------|
|-7--9--9-9-9----5--7--7-7-7----3--5--5-5-5----9-9-9-9--9-9-9-9-|
|----7--7-7-7-------5--5-5-5-------3--3-3-3----7-7-7-7--7-7-7-7-|
7 times (it starts to fade out on the 4th time)
Tap to rate this tab
 
# A B C D E F G H I J K L M N O P Q R S T U V W X Y Z