Song name
# A B C D E F G H I J K L M N O P Q R S T U V W X Y Z

Ramones - Im Against It tab

Intro Chorus
|-------------------------------|
|-------------------------------|
|--------------------------7----| x6
|--2--2--2-2-2-2--7--7-7-7-7-7--|
|--2--2--2-2-2-2--7--7-7-7-5-7--|
|--0--0--0-0-0-0--5--5-5-5---5--|

Pre Verse
|-------------------------------|
|-------------------------------|
|-----------------7--7-7-7---9--| x2
|--7--7--7-7-7-7--7--7-7-7-9-9--|
|--7--7--7-7-7-7--5--5-5-5-9-7--|
|--5--5--5-5-5-5-----------7----|

Verse
|--------------------------------------------------|
|--------------------------------------------------|
|---------------------9----------------------------| x2
|--9--9--9-9-9-9--9-7-9-9--7--7--7-7-7-7--7-7-4-2--|
|--9--9--9-9-9-9--9-7-7-9--7--7--7-7-7-7--7-7-4-2--|
|--7--7--7-7-7-7--7-5---7--5--5--5-5-5-5--5-5-2-0--|

Interlude
|---------------------------------------|
|---------------------------------------|
|--9--9-9-12-12-12-12-7--7-7-7-7-7-7-7--| x2
|--9--9-9-12-12-12-12-7--7-7-7-7-7-7-7--|
|--7--7-7-10-10-10-10-5--5-5-5-5-5-5-5--|
|---------------------------------------|

|-----------------------------------------|
|-----------------------------------------|
|---------------------9--9-9-9-9-9-9-9-9--| x2
|--7--7-7-10-10-10-10-9--9-9-9-9-9-9-9-9--|
|--7--7-7-10-10-10-10-7--7-7-7-7-7-7-7-7--|
|--5--5-5--8--8--8--8---------------------|
Tap to rate this tab
# A B C D E F G H I J K L M N O P Q R S T U V W X Y Z